Led Zeppelin - Living Loving Maid Chords & Tabs

 

Living Loving Maid Chords & Tabs

Led Zeppelin Chords & Tabs

Version: 4 Type: Tab 0 ratings
1 star 2 stars 3 stars 4 stars 5 stars
comments

Living Loving Maid Tab

   
Living Loving Maid by LED ZEPPELIN!

Tabbed by Joe Mama.

If this thing gets published on the website, then this is my first successful tab. I'm 
saying that I've been trying to submit a shit load of tabs and haven't succeeded, I'm 
saying that this my first actual time where I have sacrificed my bordness and sat down
in a chair and tabbed this out for all you tone def/retarded mottuh fuggers. Enjoy.

X= Palm mute

  "With a purple umbrella and a fifty cent hat"
E|-----------------|
B|-----------------|
G|-----------------|
D|-2222222222222222
A|-0000000000000000
E|-----------------
   xxxxxxx

E|-----------------------|
B|-----------------------|
G|-----------------------|
D|-----------------------|
A|-0-3-0-3-3-5---000-3-0-|
E|-------------3---------|

  "Livin', Lovin', She just a woman"
E|-------------------------------------------|
B|-------------------------------------------|
G|------2222---------------------------------|
D|22-22-0000-2-------------------------------|
A|00-00------0-------------------------------|
E|-------------------------------------------|

  "Misses cool rides out in her aged Cadillac"
E|-----------------|
B|-----------------|
G|-----------------|
D|-2222222222222222
A|-0000000000000000
E|-----------------
   xxxxxxx

E|-------------------------------------------|
B|-------------------------------------------|
G|-------------------------------------------|
D|-------------------------------------------|
A|-0-3-0-3-3-5---000-3-0---------------------|
E|-------------5-----------------------------|

  "Livin', Lovin', She just a woman"
E|-------------------------------------------|
B|-------------------------------------------|
G|------2222---------------------------------|
D|22-22-0000-2-------------------------------|
A|00-00------0-------------------------------|
E|-------------------------------------------|

  "Come on, babe on the round about, ride on the merry-go-round"
E|---------------------------------------------------|
B|---------------------------------------------------|
G|---------------------------------------------------|
D|--------7-7-7-7---------5-5-5-5--------------------|
A|5-5-5-5-5-5-5-5-7-7-7-7-3-3-3-3-7-7-7-5-5-5-5------|
E|3-3-3-3---------5-5-5-5---------5-5-5-3-3-3-3------|

  "We all know what your name is, so you better lay your money down..."
E|----------------|
B|----------------|
G|--------------2-|
D|2-2-2-2-2-2-2-2-|
A|0-0-0-0-0-0-0-0-|
E|----------------|
  X X X X X X X

E|---------------------------------------------------|
B|---------------------------------------------------|
G|---------------------------------------------------|
D|2222222222222222----------------------------7777---|
A|0000000000000000-0-3-0-333-5--000-3-0-00-00-5555-7-|
E|-----------------------------3-------------------5-|

  "Alimony, alimony payin' yo bills"
E|-----------------|
B|-----------------|
G|-----------------|
D|-2222222222222222
A|-0000000000000000
E|-----------------
   xxxxxxx

  "Livin', Lovin', She just a woman"
E|-------------------------------------------|
B|-------------------------------------------|
G|------2222---------------------------------|
D|22-22-0000-2-------------------------------|
A|00-00------0-------------------------------|
E|-------------------------------------------|

  "When ur conscience hits, you knock it back with pills"
E|-----------------|
B|-----------------|
G|-----------------|
D|-2222222222222222
A|-0000000000000000
E|-----------------
   xxxxxxx

  "Livin', Lovin', She just a woman"
E|-------------------------------------------|
B|-------------------------------------------|
G|------2222---------------------------------|
D|22-22-0000-2-------------------------------|
A|00-00------0-------------------------------|
E|-------------------------------------------|

  "Come on, babe on the round about, ride on the merry-go-round"
E|---------------------------------------------------|
B|---------------------------------------------------|
G|---------------------------------------------------|
D|--------7-7-7-7---------5-5-5-5--------------------|
A|5-5-5-5-5-5-5-5-7-7-7-7-3-3-3-3-7-7-7-5-5-5-5------|
E|3-3-3-3---------5-5-5-5---------5-5-5-3-3-3-3------|

  "We all know what your name is, so you better lay your money down..."
E|----------------|
B|----------------|
G|--------------2-|
D|2-2-2-2-2-2-2-2-|
A|0-0-0-0-0-0-0-0-|
E|----------------|
  X X X X X X X
[ Tab from: http://www.guitartabs.cc/tabs/l/led_zeppelin/living_loving_maid_tab_ver_4.html ]
E|---------------------------------------------------|
B|---------------------------------------------------|
G|---------------------------------------------------|
D|2222222222222222----------------------------7777---|
A|0000000000000000-0-3-0-333-5--000-3-0-00-00-5555-7-|
E|-----------------------------3-------------------5-|

  "Tellin' tall tales of how it used to be"
E|-----------------|
B|-----------------|
G|-----------------|
D|-2222222222222222
A|-0000000000000000
E|-----------------
   xxxxxxx

  "Livin', Lovin', She just a woman"
E|-------------------------------------------|
B|-------------------------------------------|
G|------2222---------------------------------|
D|22-22-0000-2-------------------------------|
A|00-00------0-------------------------------|
E|-------------------------------------------|

  "With the butler and the maid and the servants three"
E|-----------------|
B|-----------------|
G|-----------------|
D|-2222222222222222
A|-0000000000000000
E|-----------------
   xxxxxxx

  "Livin', Lovin', She just a woman"
E|-------------------------------------------|
B|-------------------------------------------|
G|------2222---------------------------------|
D|22-22-0000-2-------------------------------|
A|00-00------0-------------------------------|
E|-------------------------------------------|

It's solo time!
Don't be a pussy! Make up your own solo(s)! I would tell you the real one but that's 
plagourism and I can't read.

  "No one hears a single word you say"
E|-----------------|
B|-----------------|
G|-----------------|
D|-2222222222222222
A|-0000000000000000
E|-----------------
   xxxxxxx

  "Livin', Lovin', She just a woman"
E|-------------------------------------------|
B|-------------------------------------------|
G|------2222---------------------------------|
D|22-22-0000-2-------------------------------|
A|00-00------0-------------------------------|
E|-------------------------------------------|

  "Butchya keep on talkin' `til ur dyin' day"
E|-----------------|
B|-----------------|
G|-----------------|
D|-2222222222222222
A|-0000000000000000
E|-----------------
   xxxxxxx

  "Livin', Lovin', She just a woman"
E|-------------------------------------------|
B|-------------------------------------------|
G|------2222---------------------------------|
D|22-22-0000-2-------------------------------|
A|00-00------0-------------------------------|
E|-------------------------------------------|

"Come on, babe on the round about, ride on the merry-go-round"
E|---------------------------------------------------|
B|---------------------------------------------------|
G|---------------------------------------------------|
D|--------7-7-7-7---------5-5-5-5--------------------|
A|5-5-5-5-5-5-5-5-7-7-7-7-3-3-3-3-7-7-7-5-5-5-5------|
E|3-3-3-3---------5-5-5-5---------5-5-5-3-3-3-3------|

  "We all know what your name is, so you better lay your money down..."
E|----------------|
B|----------------|
G|--------------2-|
D|2-2-2-2-2-2-2-2-|
A|0-0-0-0-0-0-0-0-|
E|----------------|
  X X X X X X X

E|---------------------------------------------------|
B|---------------------------------------------------|
G|---------------------------------------------------|
D|2222222222222222----------------------------7777---|
A|0000000000000000-0-3-0-333-5--000-3-0-00-00-5555-7-|
E|-----------------------------3-------------------5-|

"Livin', Lovin', She just a woman"
E|-------------------------------------------|
B|-------------------------------------------|
G|------2222---------------------------------|
D|22-22-0000-2-------------------------------|
A|00-00------0-------------------------------|
E|-------------------------------------------|

E|-----------------------|
B|-----------------------|
G|-----------------------|
D|-----------------------|
A|-0-3-0-3-3-5---000-3-0-|
E|-------------3---------|


"L-L-L-Livin', Lovin', She just a woman"
E|-------------------------------------------|
B|-------------------------------------------|
G|------2222---------------------------------|
D|22-22-0000-2-------------------------------|
A|00-00------0-------------------------------|
E|-------------------------------------------|


E|-----------------------|
B|-----------------------|
G|-----------------------|
D|-----------------------|
A|-0-3-0-3-3-5---000-3-0-|
E|-------------3---------|

"L-L-L-Livin', L-L-Lovin', She just a woman"
E|-------------------------------------------|
B|-------------------------------------------|
G|------2222---------------------------------|
D|22-22-0000-2-------------------------------|
A|00-00------0-------------------------------|
E|-------------------------------------------|

If you have any questions about the tab, don't ask.
If you have any comments about the tab, who cares.
Comments