Led Zeppelin - Living Loving Maid Chords & Tabs

 

Living Loving Maid Chords & Tabs

Led Zeppelin Chords & Tabs

Version: 3 Type: Tab 0 ratings
1 star 2 stars 3 stars 4 stars 5 stars
comments

Living Loving Maid Tab

   
part 1
e---------------------------------|
b---------------------------------|
g---------------------------------|
d---------------------------------|
a-----3----3-4-5-----------3------|
E---5---5--------3--3-3-5----5----|

part 2
e------------------------------------------------------------|
b------------------------------------------------------------|
g------------------------------------------------------------|
d-------------------7----------------------------------------|
a---5-7--5-7--7-7-7-5--7-------------------------------------|
E---3-5--3-5--5-5-5----5--5-5-5-5-5-5-5-5-5-5-5-5-5-5-5-5----|
                              graduly gelling louder.
                              not time before part 3

Part 3
    D
e--------------------------------|
b---7--7-7-7-7-7-7--7--7-7-7-7---|
g---7--7-7-7-7-7-7--7--7-7-7-7---|
d---7--7-7-7-7-7-7--7--7-7-7-7---|
a---5--5-5-5-5-5-5--5--5-5-5-5---|
E--------------------------------|
[ Tab from: http://www.guitartabs.cc/tabs/l/led_zeppelin/living_loving_maid_tab_ver_3.html ]
    A
e---7--7-7-7-7-7-7--7--7-7-7-7---|
b---7--7-7-7-7-7-7--7--7-7-7-7---|
g---6--6-6-6-6-6-6--6--6-6-6-6---|
d---7--7-7-7-7-7-7--7--7-7-7-7---|
a---7--7-7-7-7-7-7--7--7-7-7-7---|
E---5--5-5-5-5-5-5--5--5-5-5-5---|

    D
e--------------------------------|
b---7--7-7-7-7-7-7--7--7-7-7-7---|
g---7--7-7-7-7-7-7--7--7-7-7-7---|
d---7--7-7-7-7-7-7--7--7-7-7-7---|
a---5--5-5-5-5-5-5--5--5-5-5-5---|
E--------------------------------|

    E
e---0----------------------------------------|
b---0----------------------------------------|
g---1----------------------------------------|
d---2----------------------------------------|
a---2----------------------------------------|
E---0------0-0-0-0-0-0-0-0-0-0-0-0-0-0-0-0---|
              graduly getting louder.

Part 1
Part 2
Part 1
Part 2
Part 3
Part 1
Part 2
Part 2
Part 2
Part 3
Part 1
Part 2
Part 1
Part 2
Part 3
Part 1
Part 2
Part 2
Part 2
Part 3
Ending

Ending

e-------------------------------------------------------|
b-------------------------------------------------------|
g-------------------------------------------------------|
d-----------------------------------------------7-------|
a-----3----3-4-5-----------3----5-7--5-7--7-7-7-5-7-----|
E---5---5--------3--3-3-5----5--3-5--3-5--5-5-5---5-----|
X3

if u have any coments email me at Guitarace23@sbcglobal.net
Comments