Led Zeppelin - Living Loving Maid Chords & Tabs

 

Living Loving Maid Chords & Tabs

Led Zeppelin Chords & Tabs

Version: 2 Type: Tab 0 ratings
1 star 2 stars 3 stars 4 stars 5 stars
comments

Living Loving Maid Tab

Band: Led Zeppelin
Song: Livin' Loving Maid (She's Just a Woman)
Album: Led Zeppelin II

Great song from a great album. Im pretty positive this is how the song goes.
I may have missed a few things, but...meh....:

Intro
-----
e:------------------------------------------------------------|
B:------------------------------------------------------------|
G:---9--------------------------------------------------------|
D:---x---You can slowly repeat this is you want.--------------|
A:---7--------------------------------------------------------|
E:------------------------------------------------------------|
   With a purple umbrella and a fifty cent hat..

Main Riff
---------
e:-------------------------------|-----------------------------|
B:-------------------------------|-----------------------------|
G:-------------------------------|--------------------7--------|
D:-------------------------------|-------------7-7-7--7--7-----|
A:--0-3-0-3--4-5--------0-3-0----|-------------7-7-7--5--7-----|
E:----------------3-3-3----------|--3-5--3-5-------------------|
     Livin', lovin' she's just a woman

Intro X1
Main Riff X1

Chorus
------
Guitar 1
e:-------------------------------|
B:-------------------------------|
G:-------------------------------|
D:--7-7-7-7-7--7-7-7-7-7-7-------|  Repeat this a couple of times
A:--7-7-7-7-7--7-7-7-7-7-7-------|
E:--5-5-5-5-5--------------------|
 ...Come on, babe on the round about...

Guitar 2
--------
w/Wah wah or a slide
e:-------------------------------|
B:-------------------------------|
G:--9/------7\------9/-----------| 
D:--9/------7\------9/-----------|
A:--7/------5\------7/-----------|
E:-------------------------------|

Both guitars end on this:
e:-----------------|
B:-----------------|
G:---2-------------|
D:---2-------------|
A:---0-------------|
E:-----------------|
...so you better lay your money down...
[ Tab from: http://www.guitartabs.cc/tabs/l/led_zeppelin/living_loving_maid_tab_ver_2.html ]
Interlude 1
-----------
e:-------------------------------|
B:-------------------------------|
G:-------------------------------|
D:--x-x-x-x-2-2-2-2-2-2-2-2-2----|
A:-------------------------------|
E:-------------------------------|

Main Riff X1
Intro X1
Chorus X1 
Intro X1 
Main Riff X1 
Intro X1
Main Riff X1

Solo  (01:27)
----
e:--------------------------------------------------------------------|
B:-------------------------------------------17b19r17-17b19r17--15-14-|
G:-------14-----14-16--16b18r16-16b18r16--14--------------------------|
D:-14-16-----16-------------------------------------------------------|
A:--------------------------------------------------------------------|
E:--------------------------------------------------------------------|

e:--------------------------------------------------|
B:--------------------------------------------------|
G:--------14-----14-16--16b18r16-16b18r16--14-------|
D:--14-16-----16------------------------------------|
A:--------------------------------------------------|
E:--------------------------------------------------|

e:------------------------------------------------------------|
B:--5-x-6-x-7-x-8-x-9-x-10-x-11-x-12-x-13-x-14--13--14b16r14--|
G:------------------------------------------------------------|
D:------------------------------------------------------------|
A:------------------------------------------------------------|
E:------------------------------------------------------------|

Interlude 2 (01:40)
-----------
e:----------------------------------|
B:----------------------------------|
G:----------------------------------|
D:--x-x-x-2-2-2-2-2-2-2-------------|
A:--x-x-x-2-2-2-2-2-2-2-------------|
E:----------------------------------|

Main Riff X1
Intro X1
Chorus X1
Interlude 1 X1
Main Riff X3

That's pretty much it. If you got any comments or whatever, email me at:
infinite_reason@hotmail.com.
Comments