Led Zeppelin - Led Zeppelin 3 Chords & Tabs

 

Led Zeppelin 3 Chords & Tabs

Led Zeppelin Chords & Tabs

Version: 1 Type: Tab 0 ratings
1 star 2 stars 3 stars 4 stars 5 stars
comments

Led Zeppelin 3 Tab

   
this is the whole album
the songs are (in order):
Immigrant Song
Friends
Celebration Day
Since I've Been Loving You
Out on the Tiles
Gallows Pole
Tangerine
Thats the Way
Bron-Y-Aur Stomp
Hats Off to Roy Harper
__________________________________________________________________________

Immigrant Song:
__________________________________________________________________________
  Gtr I
  S     E S S S E S E S S S E S  7x E S S S E S E S S E S S    W
|---||---------------------------||-------------------------||------|
|---||o-------------------------o||-------------------------||------|
|---||---------------------------||-------------------2-----||------|
|---||--------4-----------4------||-------4-----------2-0-0-||-2----|
|---||o-------------------------o||---------------0-0-0-0-0-||-2----|
|-x-||--2-2-2---2-0-2-2-2---2-0--||-2-2-2---2-0-2-------0-0-||-0----|


                             PM--|           PM--|   PM------|   PM--|
  +H     Q  Q    E S S S E S E S S S S S S   E S S S E S E S S S S S S
|--------------|---------------------------|---------------------------|
|--------0--2--|---------------------------|---------------------------|
|--------1--2--|---------------------------|---------------------------|
|-(2)----2--2--|-------4-----------4-------|-------4-----------4-------|
|-(2)----2--0--|---------------------------|---------------------------|
|-(0)----0-----|-2-2-2---2-0-2-2-0---2-2-0-|-2-2-2---2-0-2-2-0---2-2-0-|


  PM--|   PM------|   PM--|                               PM|   PM----|   PM|
  E S S S E S E S S S S S S   E S S S S e   Q    E.   S   E E S E S E E S E S
|---------------------------|---------------------------|---------------------|
|---------------------------|---------------2----2------|---------------------|
|---------------------------|---------------4b6--4b6p=3-|---------------------|
|-------4-----------4-------|-------4-------------------|-----4---------4-----|
|---------------------------|---------------------------|---------------------|
|-2-2-2---2-0-2-2-2---2-2-0-|-2-2-2---2-2---------------|-2-2---2-0-2-2---2-0-|
|
| W                           E S S S S S S Q    Q        W
|---------------------------|---------------------------|---------------------|
|---------------------------|---------------5----5\-----|---------------------|
|---------------------------|---------------7b9--7b9\---|---------------------|
|---------------------------|-------4-------------------|---------------------|
|---------------------------|---------------0-----------|---------------------|
|---------------------------|-2-2-2---2S4-4-------------|---------------------|


  PM--|   PM--|
  E S S S E S E S S E S S   W          +H     Q  Q
|-------------------------|----------|---------------|
|-------------------------|----------|--------0--2---|
|-------------------2-----|----------|--------1--2---|
|-------4-----------2-----|-2--------|-(2)----2--2---|
|---------------0-0-0-0-0-|-2--------|-(2)----2--0---|
|-2-2-2---2-0-2-------0-0-|-0--------|-(0)----0------|


              PM--|   PM--------|   PM------|
  E S S S E S E S S S E S   E S S S E S E S S S E S
|-------------------------|-------------------------||
|-------------------------|-------------------------||
|-------------------------|-------------------------||
|-------4-----------4-----|-------4-----------4-----||
|-------x---0-------x-----|-------x-----------x---0-||
|-2-2-2---2---2-2-2---2-0-|-2-2-2---2-0-2-2-2---2---||


 Chorus
  E S S S S S S +S  S S S S S E
|-------------------------------|
|-------------------------------|
|-2-2-2-2-2-2-2-(2)-2-2-2-2-2-2-|
|-2-2-2-2-2-2-2-(2)-2-2-2-2-4-2-|
|-0-0-0-0-0-0-0-(0)-3-4-4-0-0-0-|
|-------------------------------|


  E S S E S S +S  S S S S S S S
|-------------------------------|
|-------------------------------|
|-4-4-4-4-4-4-(4)-4-4-4-4-4-4-5-|
|-4-4-4-4-4-4-(4)-4-4-4-4-4-4-5-|
|-2-2-2-2-2-2-(2)-2-2-2-2-2-2-3-|
|-------------------------------|


                                                        To Coda
  E S S E S S +S  S S S S S S  S   +S  S S S S   S S S q  E. S
|--------------------------------|------------------------------|
|--------------------------------|-----0------------------------|
|-5-5-5-5-5-5-(5)-5-5-5-5-5-5--0-|-(0)-----5-7b8-7-5---5--------|
|-5-5-5-5-5-5-(5)-5-5-5-5-5-5----|-----5-7-----------7----------|
|-3-3-3-3-3-3-(3)-3-3-3-3-3-3-/7-|-(7)--------------------------|
|--------------------------------|---------------------------x--|


                                            D.S. al Coda
                                                        &
    E S S S E S E S S S E S  5x E S S S E S E S S E S S
||---------------------------||-------------------------|
||o-------------------------o||-------------------------|
||---------------------------||---------------2-2-2-----|
||--------4-----------4------||-------4-------2-2-2-----|
||o-------------------------o||---------------0-0-0-0-0-|
||--2-2-2---2-0-2-2-2---2-0--||-2-2-2---2-0-2-------0-0-|


    E S S S E S E S S S E S
||----------------------------||
||o--------------------------o||
||----------------------------||
||--------4-----------4-------||
||o--------------------------o||
||--2-2-2---2-0-2-2-2---2-0---||


   Verse 3
    S S S S S S S S S S E Q   3x
||----------------------------||-|
||o-----------------------3--o||-|
||------------------------3---||-|
||--x-x-x-x-x-x-x-x-x-x-x-0---||-|
||o-4-4-x-x-4-x-x-4-x-x-x----o||-|
||--2-2-x-x-2-x-x-2-x-x-x-3---||-|


      PM|   PM|       PM
    E S S S S S S S S E Q   4x S S S S S S S S +S  S E Q
||--------------------------||-----------------------------|
||o---------------------3--o||-----------------------------|
||----------------------3---||-----------------------------|
||----------------x-x---0---||-4-4-x-x-4-4-4-4-(4)-4-4-4---|
||o-4-----4-----4-x-x-0----o||-4-4-x-x-4-4-4-4-(4)-4-4-4---|
||--2-2-2-2-2-2-2-x-x-0-3---||-2-2-x-x-2-2-2-0-(0)-0-2-0---|


 Guitar Solo
                      ~~~
  W          +Q   Q  +Q   +S  E S
|----------|----------------------|
|----------|----------------------|
|----------|----------------------|
|-4--------|-(4)--2--(2)--(2)-2-4-|
|-4--------|-(4)------------------|
|-2--------|-(2)------------------|


               ~~~~~~~~~~~~~~~~~
  S S E E S S +H       +Q   +S  E S S S S S S S S S
|--------------------|------------------------------|
|--------------------|------------------------------|
|-0h3p0-0------------|------------2-4-2-4p2---2---2-|
|---------4-4-(4)----|-(4)--(4)-4-----------4---4---|
|--------------------|------------------------------|
|--------------------|------------------------------|


  E.  S Q     +Q   +S   E.   S   +S  S S S S S S S S S S    +E  S S
|-----5-----------------5--|-----------------------------------------|
|--------------------------|------------------------------------5----|
|-4b6---4b6===(4)--(4)r----|-4b6r(4)p2---2h4p2---2---2-4b6==(4)---4r-|
|--------------------------|-----------4-------4---4-----------------|
|--------------------------|-----------------------------------------|
|--------------------------|-----------------------------------------|


                |--3--|
  Q     +S  S E S +S  S S S S S S S
|-------------------------------------|
|-----------5-------------------------|
|-4b6===(4)---4-4r(4)p2---4p2---2-----|
|-----------------------4-----4---4p==|
|-------------------------------------|
|-------------------------------------|


                                                    ~~~~~~~~~~~~
      |-3-|             |-3-|              |-3--|
  S S S S S S S S S S S S S S +S  S S S   +E  E E E E +Q   +E    E
|---------------------------------------|----------------------------|
|---------------------------------------|----------------------------|
|---------------------------------------|----------------------------|
|-2---0h2p0---0-------------------------|----------------------------|
|---4-------4---4p2p0---0h2p0-(0)---0---|----------------------------|
|---------------------4-----------0---0-|-(0)-0-3-2-2-(2)--(2)s(11)\-|


                           |-3-|
  E. S +S  E a S +E  E S S S S S
|--------------------------------|
|--------------------------------|
|--------------------------------|
|--------------------------------|
|--------------------------------|
|----2-(2)-5-6s7-(7)S5-2-5p2h5p2p|


        ~
  S S E Q  +Q     Q      E S S S S S S S S S S S S S S
|----------------------|--------------------------------|
|----------------------|--------------------------------|
|----------------------|-----------1-1-1-1-2-2-2-4-4-4--|
|----------------------|---4-4-4-4----------------------|
|----------------------|--------------------------------|
|-0-0-2-2--(2)s=(12)\--|--------------------------------|


                                |-3-|
  E.T T T T T T T T T T S S S S E E E
|-------------------------------------|
|-4-----------------------------------|
|-4p2p1h4p2p1h4p2p1h4p2p1h4p2p1-4-2-1-|
|-------------------------------------|
|-------------------------------------|
|-------------------------------------|


                             |-3-|   |-3-| |--3--|
  S S S S Q    +E  S S +S  S S S S   E E E E E S S H
|----------------------------------|--------------------|
|----------------------------------|--------------------|
|---1-2-4-4b6r=(4)-2-4-(4)p2h4p2p1-|---1-2-4-2-4-2-1----|
|-4--------------------------------|-4------------------|
|-0--------------------------------|--------------------|
|----------------------------------|--------------------|


  |-3-| |-3--| |-3-|  |-3--|   |3|  |----6-----| |----6----| |----6----|
  E E E E  E E E E E +E  E E   E Q +S  S S S S S S S S S S S S S S S S S
|----------------------------|-------------------------------------------|
|----------------------------|-------------------------------------------|
|-1-2-4-4-/6-6-6-6-8-(8)-8-9-|-9-9-(9)p7p6h9p7p6h9p7p6h9p7p6h9p7p6h9p7p6h|
|----------------------------|-------------------------------------------|
|----------------------------|-------------------------------------------|
|----------------------------|-------------------------------------------|


                          |-3-|
  S S S S S S E     +E  E E E E
|-------------------------------|
|-------------------------------|
|-9p7p6---6-7-9b11==(9)r9-7-9p7-|
|-------9-----------------------|
|-------------------------------|
|-------------------------------|


                  |-3-|   |-3-| |---3---| |-3-|
  S S E +Q   +Q   E E E   E E E E  E S  S E E E E  E
|-----------------------|----------------------------|
|-----0-(0)--(0)--------|-7---7-9-10-9h10p8---7-9-10-|
|-9p7p6-(6)--(6)--6-7-9-|---9---------------9--------|
|-----------------------|----------------------------|
|-----------------------|----------------------------|
|-----------------------|----------------------------|


           ~~~~~~~~~~~~
   a  Q   +Q       +Q   Q
|---------------------------|
|-10s12--(12)b14--(12)--x---|
|---------------------------|
|---------------------------|
|---------------------------|
|---------------------------|


  S  E      S  S  S  S   S      +S    S  E     S  E     S
|---14-----14-14-14-14--14-----(14)--14-14----14-14----14-|
|---14-----14-14-14-14--14-----(14)--14-14----14-14----14-|
|---16b18==16-16-16-16r-16b18==(16)r----16b18----16b18----|
|---------------------------------------------------------|
|---------------------------------------------------------|
|---------------------------------------------------------|


   E     S  S      +S    S  S      S  S   S      S  S   S      S  S  S
|-14----14-14-----(14)--14-14-----14-14--14-----14-14--14-----14-14-14--|
|-14----14-14-----(14)--14-14-----14-14--14-----14-14--14-----14-14-14--|
|-16b18----16b18==(16)r----16b18=====16r-16b18==16-16r-16b18==16-16-16r-|
|-----------------------------------------------------------------------|
|-----------------------------------------------------------------------|
|-----------------------------------------------------------------------|


  S  E      S   E      S   S      +S   S   E      S   S  E
|----------14--14-----14--14-----(14)-14--14-----14--14-14------|
|----------14--14-----14--14-----(14)-14--14-----14--14-14------|
|---16b18==16r-16b18==16r-16b18==(16)-16r-16b18==16r-16-16pb18==|
|---------------------------------------------------------------|
|---------------------------------------------------------------|
|---------------------------------------------------------------|


   +S    E      S   S      S  S   S      +S   S   E      S   S      E
|-(14)--14-----14--14------------------------14--14-----14--14-----14--|
|-(14)--14-----14--14------------------------14--14-----14--14-----14--|
|-(16)r-16b18==16r-16b18==16-16r-16b18==(16)-16r-16b18==16r-16b18==16r-|
|----------------------------------------------------------------------|
|----------------------------------------------------------------------|
|----------------------------------------------------------------------|


   S  E.     +Q    +E    S  S  S  S       S  S
|-14-17b19==(17)--(17)r-17-16-14---------14----|
|-14-----------------------------17b17.5----17-|
|----------------------------------------------|
|----------------------------------------------|
|----------------------------------------------|
|----------------------------------------------|


   S  S  S  S  S  S  S  S  S  S  S  S  S  S  S  S
|-------------------------------------------------|
|-14----------------------14----------------------|
|----17-16p14----14-16-17----17-16-14----16p14----|
|-------------16----------------------16-------16-|
|-------------------------------------------------|
|-------------------------------------------------|


   S  S  e  S  S  S  S  S  S  S  S  S  S  S  S
|-------------------------------------------------|
|-------------14----------------------------------|
|-14----14-17----17-16p14h16p14----16p14----16p===|
|----16-------------------------16-------16-------|
|-------------------------------------------------|
|-------------------------------------------------|


   S  S  S       S  S  S  S  S  S  S  S  S  S  S  S  S
|------------------------------------------------------|
|------------------------------------------------------|
|-14----14b14.5-------------------------16p14----14----|
|----16---------16-14-16p14----14-15-16-------16----16-|
|---------------------------16-------------------------|
|------------------------------------------------------|


   S  S  S  S  S  S S  S  S  a  E  S  T  T  T  T  E
|---------------------------------------------------|
|----------16-16-17------16-17s16----16h17p16----16-|
|-14-18-18------------18----------18----------18----|
|---------------------------------------------------|
|---------------------------------------------------|
|---------------------------------------------------|


   E  E  S  S  S  S  S  S  S  S  S  S  S  S
|-19-19-16h19p16----16----------------------|
|----------------17----17-16----16----------|
|----------------------------18----18-16s14-|
|-------------------------------------------|
|-------------------------------------------|
|-------------------------------------------|


                     |--3--|
   S  S  S  S  S  S  S  S  S  S  S  S  S  S  S  S  S
|----------------------------------------------------|
|-------------14-------------------------------------|
|----14-16-17----17p16p14----16p14----16p14----14----|
|-16----------------------16-------16-------16----16-|
|----------------------------------------------------|
|----------------------------------------------------|


   |3-|
   E  Q       S  E       S      S  E        S   S  E  S
|------------------------------------------------------------|
|------------------------------------------------------------|
|-14-14b14.5----14b14.5-14b14.5---14b14.5==14r-------14b14.5-|
|------------16--------------------------------16-16---------|
|------------------------------------------------------------|
|------------------------------------------------------------|


  S  S      +E   +E   E  E      S   S  +E   S  S
|-------------------------------------------------------|
|-------------------------------------------------------|
|---14b16==(14)-(14)----14b16==14r-14-(14)----14pb16====|
|--------------------16--------------------16-----------|
|-------------------------------------------------------|
|-------------------------------------------------------|


            ~~~~~~~~~~~~~
   +S   S   E  +S   S  E  S  S  E  a  S  S  S  S
|------------------------------------------------|
|------------------------------------------------|
|-(14)-14r-14-(14)-14-14-14-14-------------------|
|------------------------------16-------14-16p14-|
|---------------------------------14s16----------|
|------------------------------------------------|


      ~~~~~~~~~
                                             |---3---|       |-3-|
   S  E.  +E    E   H           +Q    +Q     E     E E  S S  S S S
|----------------------------|-------------------------------------|
|----------------------------|-------------------------------------|
|------------------13b15=====|=(13)--(13)r--11b13-11-9-11p9-11p9p7-|
|----14--(14)s[12]-----------|-------------------------------------|
|-16-------------------------|-------------------------------------|
|----------------------------|-------------------------------------|


               |-3-|       |-3--|
  S S S S S S  S S S E S S S  S S S S
|-------------------------------------|
|-----------0-------------------------|
|-9-6-7-5-6---/4-4-2-2------------0-4p|
|----------------------4-4-2p---------|
|-----------------------------4p0-----|
|-------------------------------------|


                ~~~
                     |-3--|        |3-| |-3-| |3| |--3--|
  S S S S S E. +Q   +E  E E   E.S +E  S S S S E Q E E S S
|---------------------------|---------------------4-7-4---|
|---------------------------|---------4h5p4---4-5-0-----5-|
|-1---1-------------------1-|-4s6-(6)-------6-------------|
|---2---2p1-2--(2)--(2)-2---|-----------------------------|
|---------------------------|-----------------------------|
|---------------------------|-----------------------------|


                                          ~~~~~~
  S S S S S S S S S S S T T S S S S   S E S +H.
|-4---------------------------------|----------------|
|---5p4---4-------------------------|----------------|
|-------6---6s4-2h4p2---4p2---------|----------------|
|---------------------4-----4-4p2h4-|-1-2-4-(4)------|
|-----------------------------------|----------------|
|-----------------------------------|----------------|


  S E S +E  E +H       S E S E E +H
|--------------------|------------------|
|--------------------|------------------|
|-----------2-(2)----|---------5-(5)----|
|-1-2-4-(4)-2-(2)----|-1-2-3s5-5-(5)----|
|-----------0-(0)----|---------3-(3)----|
|--------------------|------------------|


                                                Outro
  S E S E E +H       S E S +E    E  +Q.   E      E S S S E S E S S S E S
|------------------|-------------------------||--------------------------|
|------------------|-------------------------||o-------------------------|
|---------7-(7)----|-----------/11-(11)------||--------------------------|
|-1-2-3s5-7-(7)----|-1-2-4-(4)---------------||--------4-----------4-----|
|---------5-(5)----|------------/9--(9)---9\-||o-------------------------|
|------------------|-------------0--(0)------||--2-2-2---2-0-2-2-2---2-0-|


  E S S S E S q  Q          E S S S E S q  Q   3x E S S S E S q  Q
|--------------------||-||---------------------||--------------------*|
|----------------3--o||-||o----------------3--o||--------------------*|
|----------------3---||-||-----------------3---||--------------------*|
|-------4--------0---||-||--------4--------0---||-------4------------*|
|-------------------o||-||o-------------------o||--------------------*|
|-2-2-2---2-0-2--3---||-||--2-2-2---2-0-2--3---||-2-2-2---2-0-2------*|
_______________________________________________________________________

Friends:
_______________________________________________________________________


Repeat twice


e|--0--3--0--2--0------0--2--0--2--0--2-----0--0--0--0----0--3--0--2--0------
b|--0--3--0--2--0------0--2--0--2--0--2-----0--0--0--0----0--3--0--2--0------
g|--0---------------------------------------0--0--0--0-----------------------
d|--0---------------------------------------0--0--0--0-----------------------
a|--0---------------------------------------0--0--0--0-----------------------
E|--0---------------------------------------0--0--0--0-----------------------

                      
e|--0--2--0--2--0--2----0--0--0--0----0--3--0--2--0----0--2--0--2--0--2------
b|--0--2--0--2--0--2----0--0--0--0----0--3--0--2--0----0--2--0--2--0--2------
g|----------------------0--0--0--0-------------------------------------------
d|----------------------0--0--0--0-------------------------------------------
a|----------------------0--0--0--0-------------------------------------------
E|----------------------0--0--0--0-------------------------------------------


e|--0--0--0--0----0--3--0--2--0----0-----------------------------------------|
b|--0--0--0--0----0--3--0--2--0----0-----------------------------------------|
g|--0--0--0--0---------------------0-----------------------------------------|
d|--0--0--0--0---------------------0-----------------------------------------|
a|--0--0--0--0---------------------0--------3-X---2-X---5-X---4X---7X--------|
E|--0--0--0--0---------------------0--------3-X---2-X---5-X---4X---7X--------|


Rythym figure 2: 



e|--0-------0--0--0--0--0--0--0--0--0--0----0--0--0--0--0--0--0--0--0--0--0--0
b|--0-------0--0--0--0--0--0--0--0--0--0----5--5--5--5--3--3--3--3--3--3--3--3
g|--0-------0--0--0--0--0--0--0--0--0--0--------------------------------------
d|--0-------0--0--0--0--0--0--0--0--0--0----3--3--3--3--1--1--1--1--1--1--1--1
a|--0-------0--0--0--0--0--0--0--0--0--0----0--0--0--0--0--0--0--0--0--0--0--0
E|--0-------0--0--0--0--0--0--0--0--0--0----0--0--0--0--0--0--0--0--0--0--0--0


e|--0--0--0--0--0--0--0--0--0--0----0--0--0--0--0--0--0--0--0--0--0--0--0--0-
b|--3--3--3--3--3--3--3--3--3--3----7--7--7--7--5--5--5--5--5--5--5--5--5--5-
g|---------------------------------------------------------------------------
b|--5--5--5--5--5--5--5--5--5--5----5--5--5--5--3--3--3--3--3--3--3--3--3--3-
a|--0--0--0--0--0--0--0--0--0--0----0--0--0--0--0--0--0--0--0--0--0--0--0--0-
E|--0--0--0--0--0--0--0--0--0--0----0--0--0--0--0--0--0--0--0--0--0--0--0--0-


e|--0--0--0--0--0--0--0----0--0--0--0--0--0--0--0--0--0--0--0--0--0--0--0--0-
b|--5--5--5--5--5--5--5----5--5--5--5--7--7--7--7--7--7--7--7--7--7--7--7--7-
g|---------------------------------------------------------------------------
d|--3--3--3--3--3--3--3----3--3--3--3--5--5--5--5--5--5--5--5--5--5--5--5--5-
a|--0--0--0--0--0--0--0----0--0--0--0--0--0--0--0--0--0--0--0--0--0--0--0--0-
E|--0--0--0--0--0--0--0----0--0--0--0--0--0--0--0--0--0--0--0--0--0--0--0--0-

e|--0--0--0--0--0---0--0--0--0--0--0--0--|
b|--7--7--7--7--7---3--3--3--3--5--5--5--|
g|---------------------------------------|
d|--5--5--5--5--5---1--1--1--1--3--3--3--|
a|--0--0--0--0--0---0--0--0--0--0--0--0--|
E|--0--0--0--0--0---0--0--0--0--0--0--0--|

Rythym Figure 3:


e|--0-------0--0--0--0--0--0--0--0--0--0----0--0--0--0--0--0--0--0--0--0--0--0
b|--0-------0--0--0--0--0--0--0--0--0--0----5--5--5--5--3--3--3--3--3--3--3--3
g|--0-------0--0--0--0--0--0--0--0--0--0--------------------------------------
d|--0-------0--0--0--0--0--0--0--0--0--0----3--3--3--3--1--1--1--1--1--1--1--1
a|--0-------0--0--0--0--0--0--0--0--0--0----0--0--0--0--0--0--0--0--0--0--0--0
E|--0-------0--0--0--0--0--0--0--0--0--0----0--0--0--0--0--0--0--0--0--0--0--0

e|--0--0--0--0--0--0--0--0--0--0----0--0--0--0--0--0--0--0--0--0--0--0-------
b|--3--3--3--3--3--3--3--3--3--3----5--5--5--5--7--7--7--7--9--9--9--9-------
g|---------------------------------------------------------------------------
b|--1--1--1--1--1--1--1--1--1--1----3--3--3--3--5--5--5--5--7--7--7--7-------
a|--0--0--0--0--0--0--0--0--0--0----0--0--0--0--0--0--0--0--0--0--0--0-------
E|--0--0--0--0--0--0--0--0--0--0----0--0--0--0--0--0--0--0--0--0--0--0-------


e|--0--0--0--0--0--0--0--0-|
b|--3--3--3--3--5--5--5--5-|
g|-------------------------|
d|--1--1--1--1--3--3--3--3-|
a|--0--0--0--0--0--0--0--0-|
E|--0--0--0--0--0--0--0--0-|

-* Lyrics and Guitar *-



(Rythym Fig. 1)
(Rythym Fig. 2)

Bright light almost blinding
Black night still there shining
I can't stop; keep on climbing
Looking for what I knew

(Rythym Fig. 2)

Had a friend she once told me,
"You got love, you ain't lonley,"
Now she's gone and left me only
Looking for what I knew

(Rythym Fig. 3)
(Rythym Fig. 1)
Mmm, I'm tellin' you now,
The greatest thing you ever can do now
Is trade a smile with someone who's blue now
It's very easy just


(Rythym Fig. 2)
Met a man on the roadside crying
Without a friend there's no denying
Your incomplete there'll be no finding
Looking for what you knew


(Rythym Fig. 2)
So anytime somebody needs you
Don't let 'em down although it grieves you
Some day you'll need someone like they do
Looking for what you knew


(Rythym Fig. 3)
(Rythym Fig. 1)
Mmm, I'm tellin' you now
The greatest thing you ever can do now
Is trade a smile with someone who's blue now
It's very easy just


(Rythym Fig. 2)
(Rythym Fig. 2)
_________________________________________________________________________

Celebration Day:
_________________________________________________________________________

| = not a standard bar line; just used to separate music
~ = vibrato or held note
x = percussive note with no pitch; muted note
. = staccato; mute the note immediately after striking it
h = hammer on
p = pull off
s = slide
o  \_
o  /   repeat sign (always look for these!)

[Riff 1]

    A7            (play this rapidly)              (play this rapidly)
e:----------------9--9--9--9--9--9--9--|--------------------------------|
B:----------------8--8--8--8--8--8--8--|-----------5--5--5--5--5--5--5--|
G:o----------2----9--9--9--9--9--9--9--|-----------6--6--6--6--6--6--6-o|
D:o------------------------------------|--5--------5--5--5--5--5--5--5-o|
A:--0--3--0----------------------------|-----3--0-----------------------|
E:-------------------------------------|--------------------------------|

[Riff 2]
          C              G              Bb             F
e:--0-0-0-0-0-0-0--3-3-3-3-3-3-3--1-1-1-1-1-1-1--1-1-1-1-1-1-1---------------|
B:--1-1-1-1-1-1-1--3-3-3-3-3-3-3--3-3-3-3-3-3-3--1-1-1-1-1-1-1---------------|
G:--0-0-0-0-0-0-0--0-0-0-0-0-0-0--3-3-3-3-3-3-3--2-2-2-2-2-2-2---------------|
D:--2-2-2-2-2-2-2--0-0-0-0-0-0-0--3-3-3-3-3-3-3--3-3-3-3-3-3-3---------------|
A:--3-3-3-3-3-3-3--2-2-2-2-2-2-2--1-1-1-1-1-1-1--3-3-3-3-3-3-3---------------|
E:-----------------3-3-3-3-3-3-3-----------------1-1-1-1-1-1-1---------------|

          C              G             Bb             F        E
e:--0-0-0-0-0-0-0--3-3-3-3-3-3-3--1-1-1-1-1-1-1---1-1-1-1-1------------------|
B:--1-1-1-1-1-1-1--3-3-3-3-3-3-3--3-3-3-3-3-3-3---1-1-1-1-1------------------|
G:--0-0-0-0-0-0-0--0-0-0-0-0-0-0--3-3-3-3-3-3-3---2-2-2-2-2-1-1-1-1-1--------|
D:--2-2-2-2-2-2-2--0-0-0-0-0-0-0--3-3-3-3-3-3-3---3-3-3-3-3-2-2-2-2-2--------|
A:--3-3-3-3-3-3-3--2-2-2-2-2-2-2--1-1-1-1-1-1-1---3-3-3-3-3-2-2-2-2-2--------|
E:-----------------3-3-3-3-3-3-3------------------1-1-1-1-1------------------|

Song Progression:

[Riff 1] x2

With [Riff 1]:

Her face is cracked from smiling,
all the fears that she's been hiding,
and it seems that pretty soon
evr'ybody's gonna know.

And her voice is sore from shouting,
cheering winners who are losing,
and she wonders if their days are few
and soon they'll have to go.

[Riff 1] once more, then

With [Riff 2]: (chords shown here for reference)

C            G
My, my, my, I'm so happy,
Bb                F
I'm gonna join the band.
 C                     G
We are gonna dance and sing in celebration,
 Bb                   F  E
we are in the promised land.

With [Riff 1]:

She hears them talk of new ways
to protect the home she lives in,
Then she wonders what it's all about
when they break down the door.
Her name is Brown or White or Black;
you know her very well.
You hear her cries of mercy
as the winners toll the bell.

With [Riff 2]:

My, my, my, I'm so happy,
I'm gonna join the band.
We are gonna sing and dance in celebration,
we are in the promised land.

[Solo]:


|------------------------------------|-----------------------------------|
|-15b17--15b17--15b17r15p13-15b17-15-|-(15)-----------13-15p13---15p13---|
|------------------------------------|-----12---12-14----------14-----14-|
|------------------------------------|-----------------------------------|
|------------------------------------|-----------------------------------|
|------------------------------------|-----------------------------------|

|------------15------------|-------------8p5----------|
|-13---15-13----15b17-15b17|-(17)-15b17-----8p5-8p5---|
|--------------------------|-----------------------7p5|
|--------------------------|--------------------------|
|--------------------------|--------------------------|
|--------------------------|--------------------------|

|----------------------|------------------------|----------------8|
|----------------------|------------------------|-----------------|
|-7b9-7b9-7b9r7p5-7b9r7|-(17)------5-7p5-5-7p5--|-5--7-5--5--8h9--|
|----------------------|-----5--5h7-----7-----7-|-----------------|
|----------------------|------------------------|-----------------|
|----------------------|------------------------|-----------------|

|-------13----13--------12----12-|
|--------------------------------|
|-12/14----14-----12/13----13----|
|--------------------------------|
|--------------------------------|
|--------------------------------|

With [Riff 1]:

There is a train that leaves the station
heading for your destination,
But the price you pay to nowhere
has increased a dollar more. Yes, it has!
And if you walk you're gonna get there
although it takes a little longer,
And when you see it in the distance
you will wring your hands and moan.

Repeat [Riff 1] until fade out

__________________________________________________________________________

Since I've Been Loving You:
__________________________________________________________________________

Cm
x 3 5 5 4 x Fm
1 3 3 1 1 x Bb5/C
x 3 3 3 x x Gm
3 5 5 3 x x 



 Intro
  Slowly Q.=44
                     Cm
 12/8
  Gtr I
                      ~~~~~~~~~~~~~~~~~
|-----------8------|----------------------11-10-8-10-11-|
|---------8---11-8-|-11b13=======(11)r------------------|
|------------------|------------------------------------|
|------------------|------------------------------------|
|------------------|------------------------------------|
|------------------|------------------------------------|


  Fm
                  ~
|-10-8---10-8-----------------------------------|
|------9------9-9-9--8--------------------------|
|----------------------10---7-8-10-7-8----------|
|--------------------------------------10-8-----|
|-------------------------------------------10--|
|-----------------------------------------------|


  Cm
           ~~~~~~~~                         ~~              ~~~~~~~~
|-------------------------------------|------------------------------11-13-|
|-------------------------------------|------------------------------------|
|-----------------------8p7----7-8-10-|-10s12------(12)-12-12--(12)--------|
|-------8s10--(10)----------10--------|------------------------------------|
|-8p6---------------------------------|------------------------------------|
|-----8-------------------------------|------------------------------------|


  Fm
                                                                                ~~~
|-15p13p11-13-15-13-11-13-13------------------------13h15p13-11-13-15-13-11-13----|
|----------------------------13-13-(13)--(13)--(13)----------------------------13-|
|---------------------------------------------------------------------------------|
|---------------------------------------------------------------------------------|
|---------------------------------------------------------------------------------|
|---------------------------------------------------------------------------------|


 ~~~~~~~~~~~~~
|-------------------------------8-----------------------|
|-(13)---(13)--8s11---------7s8---11-8------------------|
|-------------------10s12--------------11-10-8----10----|
|----------------------------------------------10----10-|
|-------------------------------------------------------|
|-------------------------------------------------------|


  Cm
             ~~~~~~~~~~           ~~~~~~
|---------------------------------------------------------------------|
|----------------------------------------------------8-------11-13-13-|
|-8p7------------------8p7---------------8p7----8-10---10s12----------|
|-----10-8-8-8-(8)-(8)-----10-8-8-8-(8)------10-----------------------|
|---------------------------------------------------------------------|
|---------------------------------------------------------------------|


   ~~                              ~~~~~~~~~~~~
|------------11-13-13b15-13-11-13-13b15==(13)r------|
|-13---11h13----------------------------------------|
|---------------------------------------------------|
|---------------------------------------------------|
|---------------------------------------------------|
|---------------------------------------------------|


  Gm
  Gtrs I, II
                      ~~~~~~                      ~~~~~~
|------------------------------------10-13-13b15-13b15====(13)r\------|
|-11p8----8h11p8----8-8-(8)-------11-----------------------------9-11-|
|------10--------10---------10s12-------------------------------------|
|---------------------------------------------------------------------|
|---------------------------------------------------------------------|
|---------------------------------------------------------------------|


  Ab
   ~~~~~              PM              ~~
|--------11-------11----13b15--13b15-13--13b15--|
|-11b13-----11b13----11-------------------------|
|-----------------------------------------------|
|-----------------------------------------------|
|-----------------------------------------------|
|-----------------------------------------------|


  Cm/Eb       G7/Cm Eb7    D7                Dbmaj7
                           Gtr I
      ~~
|-11---------------------|-------------------------------------||
|----13-(13)\------------|-------------------------------------||
|------------------------|---5------5b7-5------5------5b7-5----||
|-------------------/5---|-4---------------4-3-----------------||
|------------------------|-------------------------------------||
|-------------------/6---|-5----(5)--------5-4----(4)--------4-||


 1st Verse
  Cm                 Fm
|------------------|-------------------------|
|------------------|-------------------------|
|------------/8-/8S|=1--------8-10b12--10b12-|
|------------------|-------------------------|
|-3----------------|-------------------------|
|------------------|-------------------------|


  Cm
   ~~~~~
|---------------------------------------|
|---------------------------------------|
|-10b12----------10pb12r(10)-8-10-10b12-|
|---------------------------------------|
|---------------------------------------|
|---------------------------------------|


        ~~
|---------------------------------------------------|
|---------------/11b13==(11)r-11-8------------------|
|-8--------------------------------10-8p7----7-8-10-|
|---10-10---------------------------------10--------|
|---------------------------------------------------|
|---------------------------------------------------|


  Fm
         ~~
|-------------------------|------------------------------------------|
|-------------------------|------------------------------------------|
|-10--------------1-3-3s5-|-3s5-3-1-1s3s1-1s3-1-1s3s1-1s3-1-1s3s1-3--|
|----10-10----------------|------------------------------------------|
|-----------------3-5-5s6-|-5s6-5-3-3s5s3-3s5-3-3s5s3-3s5-3-3s5s3-5--|
|-------------------------|------------------------------------------|


  Cm
    ~
|-------------------------------------|
|-------------------------------------|
|-3s5---------------------------------|
|-------------10-12-12-13-12-12-10----|
|-5s6------------------------------13-|
|-------------------------------------|


                                                   ~~
|-------------------------------------------------------------------------|
|----------------------------11-------------------------------------------|
|----------10h11p10-------12----10h11p10----10----------------------------|
|-10-12-13----------13-10----------------13----13-10-10-12-13p12p10-10-8\-|
|-------------------------------------------------------------------------|
|-------------------------------------------------------------------------|


  Gm                      Ab          Fm
  Gtr II
                          ~      ~    ~      ~
|-3--3-(3)---(3)--------|---------------------------|
|-3--3-(3)---(3)--------|---------------------------|
|-0--0-(0)---(0)--------|---------------------------|
|-5--5-(5)---(5)----5-5-|-6--6s8-6--5-3--3s5-3--3s5-|
|-----------------------|---------------------------|
|-------------------3-3-|-4--4s6-4--3-1--1s3-1--1s3-|


  Cm/EbG7/DCm  Eb7   D7                Dbmaj7
   ~~      ~                     ~~~
|------------------|---------------------------------------||
|------------------|---------------------------------------||
|-/5---4---5-------|---5----5b7r(5)------5------5b7r(5)----||
|--------------5---|-4---------------4-3-------------------||
|-/6---5---6-------|---------------------------------------||
|--------------6---|-5----5----------5-4----(4)----------4-||


 2nd Verse
  Cm
  Gtr I
|---------------------------------------------------|
|-------4-------3-----3-(3)-4-----4-------3-----4---|
|-----5---5---5---5-----------5-----5-(5)---5-----5-|
|---5-------5-------5-----------5-------------5-----|
|-3---------------------(3)------------3------------|
|---------------------------------------------------|


  Fm
|-----------------3-----1-------3-----3-----1---------|
|---1-----1-------1-------1-(1)---1-----1-----1---1---|
|-----1-----1-(1)---1---------------1-----1-----1-----|
|-------3-------------3-------------------------------|
|-----------------------------------------------------|
|-1------------1-------------1------------------------|


  Cm
|-------------------------------------------------------|
|-----4-------3-------3-------4-----4-------3------3----|
|-------5---5---5---5---5-(5)---5-----5-(5)---5-------5-|
|---5-----5-------5---------------5------5------5-(5)---|
|-3-----------------------(3)---------------------------|
|-------------------------------------------------------|


|-----------------------------------------------------------|
|---4------4--------3------3--------4------4----------------|
|-----5-------5-(5)---5-------5-(5)---5-------5-5-5-5-5-3---|
|-5-----5-(5)----5------5-(5)----5------5-(5)---------------|
|-----------------------------------------------6-6-6-6-5-5-|
|-----------------------------------------------------------|


  Fm
|---------------------------------------------|--------------^1-----1--|
|-----------1-------------1-------------1-----|--------------^1-----1--|
|-1-------1---1---------1---1---------1---1---|------------0-^1-----1--|
|-------3-------3-(3)-3-------3-(3)-3-------3-|---3-(3)------^3-----3--|
|-3---3------------3-------------3------------|-3----------------------|
|---------------------------------------------|------------------------|


  Cm
                           <
|---------------------------------------------------|
|---------------------------------------------------|
|-3s5-5-5-x-x-x-x-x-x-x-x----5-5-5-5-5----5-5-5-5-5-|
|-------------x-x-x-x-x-x----5-5-5-5-5----5-5-5-5-5-|
|-------------x-x-x-x-x-x-/6-6-6-6-6-6-/6-6-6-6-6-6-|
|---------------------------------------------------|


  Gtr II
|-------------------------------------------------|
|-------------------------------------------------|
|-5-4-5-4-5-4-5-4-5-4-5-4-5-4-5-4-5-4-5-4-5-4-5\--|
|-------------------------------------------------|
|-6-5-6-5-6-5-6-5-6-5-6-5-6-5-6-5-6-5-6-5-6-5-6\--|
|-------------------------------------------------|


  Gm                  Ab          Fm
                      ~      ~    ~      ~
|-3---3---3---(3)---|---------------------------|
|-3---3---3---(3)---|---------------------------|
|-0---0---0---(0)---|---------------------------|
|-5---5---5---(5)---|-6--6s8-6--5-3--3s5-3--3s5-|
|-------------------|---------------------------|
|-------------------|-4--4s6-4--3-1--1s3-1--1s3-|


  Cm/E G7/DCm  Eb7
  Gtr II
|------------------|
|------------------|
|------------------|
|------------------|
|------------------|
|------------------|
|
| Gtr I
|  ~~      ~
|------------------|
|------------------|
|-/5---4---5-------|
|--------------5---|
|-/6---5---6-------|
|--------------6---|


  D7                Dbmaj7
|--------------------------------------------------------------||
|------------------------------------------8-11p8-11p8----8----||
|------------------------------------10b12-------------11---10-||
|--------------------------------------------------------------||
|--------------------------------------------------------------||
|--------------------------------------------------------------||
|
|             ~~~
|--------------------------------------------------------------||
|--------------------------------------------------------------||
|---5----5b7r(5)------5------5b7r(5)---------------------------||
|-4---------------4-3------------------------------------------||
|--------------------------------------------------------------||
|-5----5----------5-4----(4)----------------------------4------||


 Guitar Solo
  C                                  Cm
  Gtr I
  |                        |         |        |               |        |               |   |        |     |       |
  o                        /         /        /               /        /               /   /        /     /       /

                                                                                       ~~~~~~~                          ~~
|-------------------------------------------------------------------------------------------------------------------------|
|-------------------------------------------------------------------------------------------------------------------------|
|-8----8------------------------------------------8--------------10p8----10p8----8------------8-10-10b12-10b12-10-8-10-10-|
|---10---10-8h10p8----8-------------------------8---10-8-10-(10)------10------10---10-10-(10)-----------------------------|
|------------------10---10-8p6-8p6-------6-8s10---------------------------------------------------------------------------|
|----------------------------------8-8-8----------------------------------------------------------------------------------|


  Fm
    |  |  |     |   |          | |         |     |       |  |      |
    /  /  /     /   /          / /         /     /       /  /      /

    ~~~~                       ~
|-----------11-10-8---10-8-----------------------------------------------|
|-------8-9---------9------9-9-9-8---------------------------------------|
|-(10)-----------------------------10-8----------------------------------|
|---------------------------------------10-8s6---8-6---6-------5h6p5-----|
|----------------------------------------------8-----8---8-(8)-------8p6-|
|------------------------------------------------------------------------|


  Cm
  | |||   |               |         | | | |  |  |
  / ///   /               /         / / / /  /  /

  ~                                 ~~
|---------8--------------------------------------------|
|-----x-8---11-8----------------------------16-18-16---|
|----------------10b12==(10)r-10-8----8--17------------|
|----------------------------------10------------------|
|------------------------------------------------------|
|-8----------------------------------------------------|


   |     |       |           |     |       |     |     |       |       |              |        |
   /     /       /           /     /       /     /     /       /       /              /        /

                                                               ~~~~~
|------------------------------15------------------------------------------------------------------|
|-18b20-18b20==(18)r(18)p16-18----16b16.5-18-16-18b20-18b20==(18)r-18-18pb20r(18)p16-18-18b20-16---|
|------------------------------------------------------------------------------------------------x-|
|--------------------------------------------------------------------------------------------------|
|--------------------------------------------------------------------------------------------------|
|--------------------------------------------------------------------------------------------------|


  Fm
  |    |        |          |         |         |           |            |             || |    |
  /    /        /          /         /         /           /            /             // /    /

                                                 ~~~~~~~                          ~~~~~
|--16-15--------------------------------------------------------------------------------------------|
|--------16----------------------------------------------------------16-------------------13-16-13--|
|-----------17s15p13s12-----12-13-15--12-13-------------13--15-15b17-----15b17==(15)r---------------|
|-----------------------15------------------15--15-(15)---------------------------------------------|
|---------------------------------------------------------------------------------------------------|
|---------------------------------------------------------------------------------------------------|


   |            |      |            |      |            |      |     |     |        |         |         |
   /            /      /            /      /            /      /     /     /        /         /         /
[ Tab from: http://www.guitartabs.cc/tabs/l/led_zeppelin/led_zeppelin_3_tab.html ]
|-------------------------------------------------------------------------------------------------------------|
|-16b20==(16)r(16)-13-16b20==(16)r(16)-13-16b20==(16)r(16)-13-18b20-18b20-18b20-18-18pb20-18-18pb20-18-18pb20-|
|-------------------------------------------------------------------------------------------------------------|
|-------------------------------------------------------------------------------------------------------------|
|-------------------------------------------------------------------------------------------------------------|
|-------------------------------------------------------------------------------------------------------------|


  Cm                                                                                                                              Bb
   |      |    |        |              |              |           |         |               |          |            |              |
   /      /    /        /              /              /           /         /               /          /            /              o

      ~~
|---------------------8----------------------------------------------------------------------------------------------------11p8---11p8-10p8---|
|-16----------------8---8h11p8-8-----------------------------------------------------------------------------------------8------8-----------10|
|----17-(17)\-10b12--------------10p8-10p8----8-------------------------------------------------------10----8----8-10b12----------------------|
|------------------------------------------10---10-8h10p8----8-------------------------8----8-10-8-10----10---10------------------------------|
|---------------------------------------------------------10---10p8s6-8p6---6---6-8s10---10---------------------------------------------------|
|-------------------------------------------------------------------------8---8---------------------------------------------------------------|


  Cm                                                                                          Bb5/C
  |          |            |               |         |       |      |       |    |    |    |     |
  /          /            /               /         /       /      /       /    /    /    /     /

|-8--------------------------------------------------------------------------------------------------|
|---11b13==(11)r-11------------------------------------------------------------------8--------/11-11-|
|-------------------10b12--10pb11r(10)-8----8----8----------8-10-8--------10-8---------8----8-/12----|
|----------------------------------------10---10---10-10-10---------10-10------10-10-----10----------|
|----------------------------------------------------------------------------------------------------|
|----------------------------------------------------------------------------------------------------|


  Gm
   |        |       |   |    |     |        |        |    |||  |
   /        /       /   /    /     /        /        /    ///  /

                                                        ~~
|----10-13-13b15==(13)r--13-10-13-13b15-13-10-12-10--------------|
|-11------------------------------------------------11-11---9-11-|
|----------------------------------------------------------------|
|----------------------------------------------------------------|
|----------------------------------------------------------------|
|----------------------------------------------------------------|


  Ab                      Fm
   ~~~~~       ~~~~~                           ~~
|----------11-------11----13b15-13b15---13b15-13----13b15-|
|-11b13-------11b13----11---------------------------------|
|---------------------------------------------------------|
|---------------------------------------------------------|
|---------------------------------------------------------|
|---------------------------------------------------------|
|
| Gtr I
|  ~~~~~       ~~~~~       ~~~~~               ~~
|---------------------------------------------------------|
|---------------------------------------------------------|
|---------------------------------------------------------|
|--6-----6s=8--6--------5--3----------3s=5-----3--3s=5----|
|---------------------------------------------------------|
|--4-----4s=6--4--------3--1----------1s=3-----1--1s=3----|


  Cm/Eb        G7/D                      Cm       Eb7
                                               ~~
|-11---------------------8-----------------------------11-13-11--|
|----13-(13)\----------8---11-8---------------------13-----------|
|----------------10b12----------10b12-10-8-----------------------|
|------------------------------------------10-10-----------------|
|----------------------------------------------------------------|
|----------------------------------------------------------------|
|
|  ~~                                    ~
|----------------------------------------------------------------|
|----------------------------------------------------------------|
|-/5-----------4-------------------------5-----------------------|
|-------------------------------------------------5--------------|
|-/6-----------5-------------------------6-----------------------|
|-------------------------------------------------6--------------|


  D7                                     Dbmaj7
           ~~~~~~~~~~~~~~~~~
|-13b15---13b15========(13)-(13)r(13)p11-13-13b14-13b15---13b15-------------13pb15r(13)-11b11.5==(11)r-||
|---------------------------------------------------------------------------------------11b11.5==(11)r-||
|------------------------------------------------------------------------------------------------------||
|------------------------------------------------------------------------------------------------------||
|------------------------------------------------------------------------------------------------------||
|------------------------------------------------------------------------------------------------------||
|
|                        ~~~~
|------------------------------------------------------------------------------------------------------||
|------------------------------------------------------------------------------------------------------||
|-------5----------5b7r=(5)-----------------------------5-----------5b7r(5)----------------------------||
|--4--------------------------------------4--------3---------------------------------------------------||
|------------------------------------------------------------------------------------------------------||
|--5-------------5------------------------5--------4------------(4)--------------------------------4---||


 3rd Verse
  Cm
|--------------|
|-13\----------|
|--------------|
|--------------|
|--------------|
|--------------|
|
|--------------|
|--------------|
|--------------|
|--------------|
|--------------|
|--------------|


  Fm                                    Cm
  Gtr I
                          ~
|-------------------------------------|-------------|
|-------------------------------------|-4-----------|
|-----3-5b7-5b7-5-3-5p3-5-------------|-5-----------|
|---5---------------------5-----------|-5-----------|
|---------------------------3p1-------|-------------|
|-------------------------------3-3---|-------------|


  Eb                       D
  Gtr II
|------------------------|-----------------------------------------|
|------------------------|-------------7-(7)-------7-------7-------|
|-8--8-8-8-8-8-8-8-8-8-8-|-7-7-7-7-7-7---(7)-7---7---7---7---7---7-|
|-8--8-8-8-8-8-8-8-8-8-8-|-7-7-7-7-7-7---(7)---7-------7-------7---|
|-6--6-6-6-6-6-6-6-6-6-6-|-5-5-5-5-5-5----5------------------------|
|------------------------|-----------------------------------------|


  Cm   G7/DCm/EEb7   D7                Dbmaj7
   ~~~~~~~~~~~~~~                ~~~
|------------------|--------------------------------------||
|------------------|--------------------------------------||
|-/5---4---5-------|---5----5b7r(5)------5------5b7r(5)---||
|--------------5---|-4---------------4-3------------------||
|-/6---5---6-------|--------------------------------------||
|--------------6---|-5----5----------5-4----(4)-----------||


 4th Verse
  Cm
|-------------------8--10-10-10---(10)-11-11-11---(11)-10-------|
|----------8--------------------8---8------8----8--(8)----8-----|
|-----8------8----------------8---------------------------------|
|-/10---10-----10-(10)----10--------------------------------10s=|
|---------------------------------------------------------------|
|---------------------------------------------------------------|


  Fm
|---1-----1---(1)-3---3---(3)-4---4-------3---1---|
|-----1-----1-(1)---1---1-------1---1-(1)---1---1-|
|-------1-----------------------------------------|
|-3------------------------3-----------3----------|
|-------------------------------------------------|
|-------------------------------------------------|


  Cm
|------8-------8-------10------------11---10--------------8---10---|
|--------8-------8-(8)----8-------------8---------8-(8)-8---8----8-|
|---------------------------8--8-(8)-------------------------------|
|-3s10-----10-10---10---------10-10-------10-(10)---10-------------|
|------------------------------------------------------------------|
|------------------------------------------------------------------|


  C7
|-----12--------12-----------15-18-15---------15--------------------------------------------|
|--------11---------11-13s17----17--------17-----17-(17)-17--------17----------17-------17--|
|-----------12-(12)----11s15----15----15-(15)---------------15---------15-(15)----15--------|
|-/10---------------------------------------------------------------------------------------|
|----------------------------------------------------15--------15-(15)-----15-----15-15-----|
|-------------------------------------------------------------------------------------------|


  Fm
|---1-----1-------3-----3-------4-----4-------3-----3---|
|-----1-----1-(1)---1-----1-(1)---1-----1-(1)---1-----1-|
|-1-----1------1------1------1------1------1------1-----|
|-3------------3-------------3-------------3------------|
|-------------------------------------------------------|
|-------------------------------------------------------|


|---1-----1-------3-----3-------4-----3-------1-----1---|
|-----1-----1-(1)---1-----1-(1)---1-----1-(1)---1-----1-|
|-1-----1------1------1------1------1------1------1-----|
|-3------------3-------------3-------------3------------|
|-------------------------------------------------------|
|-------------------------------------------------------|


  Cm
|------8-------8-------10------10-------11---------------10---------8-|
|--------8-------8-(8)----8-------8-(8)----8-------8-(8)----8-----8---|
|------------------------------------------------8--------------------|
|-3s10-----10-10---10-------10-10---10-------10-10---10-------10-10---|
|---------------------------------------------------------------------|
|---------------------------------------------------------------------|


                                                     ~~~~~~~~~~~~
|---------8---------8---------8---------8---------8------------------------------------------|
|-------8---------8---------8---------8---------8--------------------------------------------|
|-10b12-----10b12-----10b12-----10b12-----10b12-----10b12==(10)r-10-8------------------------|
|---------------------------------------------------------------------10-8-7-----------------|
|----------------------------------------------------------------------------10-8-----8-10-8-|
|---------------------------------------------------------------------------------/10--------|


  Gm                    Ab          Fm              Cm/EbG7/DCm  Eb7
  ~                     ~      ~~~~~       ~         ~~      ~
|------3---(3)--------|---------------------------|-------------------|
|------3---(3)--------|---------------------------|-------------------|
|----x-0---(0)--------|---------------------------|-/5---4---5--------|
|------5---(5)----5-5-|-6--6s8-6--5-3--3s5-3--3s5-|--------------5----|
|---------------------|---------------------------|-/6---5---6--------|
|-3---------------3-3-|-4--4s6-4--3-1--1s3-1--1s3-|--------------6----|


  D7                Dbmaj7
              ~~~
|---------------------------------------|
|---------------------------------------|
|---5----5b7r(5)------5------5b7r(5)----|
|-4---------------4-3-------------------|
|---------------------------------------|
|-5----5----------5-4----(4)----------4-|


  Ab
|-----------------------------------------|
|-----------------------------------------|
|-5---------------------------------------|
|-6---6-6-6-6-6-6-6-6-6-6-6-6-6-6-6-6-6-6-|
|-6---------------------------------------|
|-4---4-4-4-4-4-4-4-4-4-4-4-4-4-4-4-4-4-4-|


  Fm                             Cm/EbG7/DCm  Eb7
         ~          ~~~~~~~       ~~      ~
|------------------------------|------------------|
|------------------------------|------------------|
|------------------------------|-/5---4---5-------|
|-3--3s5-3--3s5-6S5S3-(3)/-5-3-|--------------5---|
|------------------------------|-/6---5---6-------|
|-1--1s3-1--1s3-4S3S1-(1)/-3-1-|--------------6---|


  D7                Dbmaj7
              ~~~
|--------------------------------------|
|--------------------------------------|
|---5----5b7r(5)------5------5b7r(5)---|
|-4---------------4-3------------------|
|--------------------------------------|
|-5----5----------5-4----(4)-----------|


  Cm
  Gtr I
|-----------------------------------------|-----------------------*|
|-4s3s4s3s4s3s4s3s4s3s4s3s4s3s4s3s4s3s4---|-4p3-3-4p3-3-4-3-3-----*|
|-5s4s5s4s5s4s5s4s5s4s5s4s5s4s5s4s5s4s5---|-----------------------*|
|-----------------------------------------|-----------------------*|
|-----------------------------------------|-----------------------*|
|-----------------------------------------|-----------------------*|

__________________________________________________________________________

Out on the Tiles:
__________________________________________________________________________

/ x         Slide to x
(x ^ y)     Bend up, from x to y
(x v y)     Bend down, from x to y            if notes are in parenthesises
([x] ^ y)   Play y bent, [don't play x]       they are hit once.
(x - y)     Pull off from y to x              
(x h y)     Hammer-on from x to y
~~x,y       Trill x and y



:Intro
---------------------------------------------------------------------------
---------------------------------------------------------------------------
---------------------------------------------------------------------------
----------------------------------------7-------7------7-------------------
----------------------------------------7-------7------7-------------------
--3-3-3-3-3-3-3-3--2-2-2-2-2-2-2-2----5-5-----5-5----5-5-------------------

===========================================================================

:Verse   (Repeat this line 2x)  ---Play the whole Verse two times---
---------------------------------------------------------------------------
---------------------------------------------------------------------------
---------------------------------------------------------------------------
--------4------------------------------------------------------------------
------4-------------6-7-6-7-6-7-6------------------------------------------
--2-5-----------------------------9-4--7-5-7-5--(7 ^ 8)-(8 v 7)-5-7--------

                      ==============================

---------------------------------------------------------------------------
---------------------------------------------------------------------------
---------------------------------------------------------------------------
--------4------------------------------------------------------------------
------4-------------6-7-6-7-6-7-6----|---------------|---------------------
--2-5-----------------------------9-7-9-7-9-7-9-7-5-4-5-4-5-4-5-4-5--------

 
---------------------------------------------------------------------------
---------------------------------------------------------------------------
---------------------------------------------------------------------------
--4-------4-------4--------------------------------------------------------
--4-------4-------4--------------------------------------------------------
--2---0---2---0---2--------------------------------------------------------
                    (NOTE: Remember, Verse is in 15/8, so it comes back
                           a beat short! Chorus is in 4/4) 
             
===========================================================================

:Chorus  (Repeat two times)
---------0-------------------5----------------5----------------------------
---------0-------------------5----------------5-----------------9----------
---------1-------------------6----------------6-----------------9----------
---------2-------------------7----------------7-----------------9----------
---------2-------------------7----------------7----------7-7-7--7--7-7-----
--0-0-0--0--0-0--------5-5-5-5-5-5------5-5-5-5--5-5-----------------------


-----------------------------5----------------5-----------------0----------
---------9-------------------5----------------5-----------------0----------
---------9-------------------6----------------6-----------------1----------
---------9-------------------7----------------7-----------------2----------
---7-7-7-7--7-7--------------7----------------7-----------------2----------
-----------------------5-5-5-5-5-5------5-5-5-5--5-5-----0-0-0--0----------


---------------------------------------------------------------------------
---------------------------------------------------------------------------
---------------------------------------------------------------------------
-----7--------7--------7--------7------------------------------------------
-----7--------7--------7--------7------------------------------------------
--5--5-----5--5-----5--5-----5--5------------------------------------------
                   ===================================

    Repeat the whole -Intro,Verse,Chorus- a second time.  Then...
===========================================================================

:Outro
---------------------------------------------------------------------------
---------------------------------------------------------------------------
--9--12------9--9--12------9--12------9--14--12----------------------------
--9--12------9--9--12------9--12------9--14--12----------------------------
--7--10------7--7--10------7--10------7--12--10----------------------------
---------------------------------------------------------------------------
___________________________________________________________________________

Gallows Pole:
___________________________________________________________________________

 riff :

        e --------------
        B --2-0-2---1-3-
        G --2-0-2---0-0-
        D --2-2-2---2-4-
        A --------------
        E --------------

        riff
        Hangman, Hangman, hold it a little while
        I think I see my friends a commin

        G       D    riff
        ridin a many mile

        Friends you get a little silver, get a little gold
        what did you bring me, my dear friends

           G                D       riff
        to keep me from the gallows pole

        what did you bring me

           G                D       riff
        to keep me from the gallows pole

        I couldn't get no silver
        couldn't get no gold
        you know the way they took that ball

           G                D       riff
        to keep you from the gallows pole

        A     D G D       A         D      G
        Hangman, Hangman, hold it a little while
        A         D      G
        I think I see my brother commin

        G       D    G A  G A  G A  G A
        ridin a many mile


        Brother you get a little silver, get a little gold
        what did you bring me, my brother

           G                D       G A  G A
        to keep me from the gallows pole


        brother I brought you some silver
        I brought a little gold
        Brought a little of everything

           G                D        G A  G A
        to keep you from the gallows pole

             C       D
        Ya I brought you

           G                D        G A  G A
        to keep you from the gallows pole



        A     D G D       A         D      G
        Hangman, Hangman, turn your head a while
        A         D      G
        I think I see my sister commin

        G       D    G A  G A  G A  G A
        ridin a many mile mile  mile mile


        Sister I emplore you take him by the hand
        take him to some shady pass and

        G              D           A  G A  G A  G A
        sit him on the rock of his man
        please take him

        G              D       A  G A  G A  G A
        sit him on the rock of main man man

        A     D G D       A         D      G
        Hangman, Hangman, on your face a smile
        A       D        G
        tell me that I'm free to ride
        G        D    G A  G A  G A  G A
        ride for many mile

        uh you've got a fine sister
        she want my blood to boil
        she want my blood to boil in her
        G                    D       G A  G A  G A  G A
        to keep you from the gallows pole

        Your brother brought me silver
        and your sister want my sole
        for now I laugh oh so hard
        G                    D       G A  G A  G A  G A
        she's swinging on my gallows pole

        for now I laugh oh so hard
        G                    D       G A  G A  G A  G A
        she's swinging on my gallows pole

        swinging on my gallows pole

        swinging on my gallows pole

        swinging on my gallows pole


        riff
        Hangman, Hangman, hold it a little while
        I think I see my friends a commin

        G       D    riff
        ridin a many mile

        Friends you get a little silver, get a little gold
        what did you bring me, my dear friends

           G                D       riff
        to keep me from the gallows pole

        what did you bring me

           G                D       riff
        to keep me from the gallows pole

        I couldn't get no silver
        couldn't get no gold
        you know the way they took that ball

You know that we're too damn poor

           G                D       riff
        to keep you from the gallows pole

        A     D G D       A         D      G
        Hangman, Hangman, hold it a little while
        A         D      G
        I think I see my brother commin

        G       D    G A  G A  G A  G A
        ridin a many mile


        Brother you get a little silver, get a little gold
        what did you bring me, my brother

           G                D       G A  G A
        to keep me from the gallows pole


        brother I brought you some silver
        I brought a little gold
        Brought a little of everything

           G                D        G A  G A
        to keep you from the gallows pole

             C       D
        Ya I brought you

           G                D        G A  G A
        to keep you from the gallows pole



        A     D G D       A         D      G
        Hangman, Hangman, turn your head a while
        A         D      G
        I think I see my sister commin

        G       D    G A  G A  G A  G A
        ridin a many mile mile  mile mile


        Sister I emplore you take him by the hand
        take him to some shady pass and

Take him to some shady bower

        G              D           A  G A  G A  G A
        sit him on the rock of his man

Save me from the wrath of this man

        please take him

        G              D       A  G A  G A  G A
        sit him on the rock of main man man


Save me from the wrath of this man

        A     D G D       A         D      G
        Hangman, Hangman, on your face a smile
        A       D        G
        tell me that I'm free to ride
        G        D    G A  G A  G A  G A
        ride for many mile

        uh you've got a fine sister

Oh, yes, you got a fine sister


        she want my blood to boil

She warmed my blood from cold

        she want my blood to boil in her


She brought my blood to boiling hot

        G                    D       G A  G A  G A  G A
        to keep you from the gallows pole

        Your brother brought me silver
        and your sister want my sole

Your sister warmed my soul

        for now I laugh oh so hard
        G                    D       G A  G A  G A  G A

But now I laugh and pull so hard

        she's swinging on my gallows pole

And see you swinging on the gallows pole

________________________________________________________________________

Tangerine:
________________________________________________________________________

^  bend                   |o--------o|
r  release                |o--------o|   repeat
[  ]  harmonics       x  / y   slide

Tune down 1/4 step.

Verse:

|------------------------------------3----3----------2---2-
|-----1------3------1-----0----------0----0-----0----3---3-
|o----2------2------2-----2----------0----0-----0----2---2-
|o----2------2------2-----2----------0----0-----0----0---0-
|-----0------0------0-----0----------2----2----------------
|------------------------------------3----3----------------


___1st ending
|------2-----2----|
|------3-----3----|
|------2-----2---o|
|--0---0-----0---o|
|-----------------|
|-----------------|


___2nd  ending
|--0---0------0---0-----------------------------------------
|--1---1------1---1--------------------1----------------3---
|--0---0------0---0---------------0-----------------0-------
|--2---2------2---2----------2-----------------0------------
|--3---3------3---3-----3------------------2----------------
------------------------------------------------------------

|---0------0--0---------------------------2---2---
|---1------1--1-------5--5-----3--3-------3---3---
|---2------2--2-------5--5-----4--4-------2---2---
|---2------2--2-------5--5-----5--5-------0---0---
|---0------0--0-----------------------------------
|-------------------------------------------------


|---------2-------2--2----3----2--------2-
|---------3-------3--3----3----3----0---3-
|---------2-------2--2----2----2----0---2-
|---------0-------0--0----0----0----0---0- 
|-----------------------------------------
|-----------------------------------------


Refrain:
                                         _____1, 2, 3 endings
|----0--0---0----2--2--2-----|------3-----3-------3---3----2--2--2--
|----1--1---1----3--3--3-----|------3-----3-------3---3----3--3--3--
|----0--0---0----2--2--2-----|o-----0-----0-------0---0----2--2--2-- 
|----2--2---2----0--0--0-----|o-----0-----0-------0---0----0--0--0--
|----3--3---3----------------|------2-----2-------2---2-------------
|----------------------------|------3-----3-------3---3-------------


|---0---------0----------0---0---0----2---2---2------|
|---1---------1----------1---1---1----3---3---3------|
|---0---------0----------0---0---0----2---2---2----o-|
|---2---------2----------2---2---2----0---0---0----o-|
|---3---------3----------3---3---3-------------------|
|---3---------3--------------------------------------|

_______4th ending
|--3--3-----3--3-----3---3-----2---------2-------2-
|--0--0-----0--0-----0---0-----3---------3-------3-
|--0--0-----0--0-----0---0-----2---------2-------2-
|--0--0-----0--0-----0---0-----0------3--0----3--0-
|--2--2-----2--2-----2---2-------------------------
|--3--3-----3--3-----3---3-------------------------


Solo Rhythm:  (Listen to CD)

|Am    |G       |D       |F      |E   F   |E   F  |

then:

|---0------0-------0---0------3---3---3-------3----
|---1------1-------1---1------0---0---0-------0----
|---0------0-------0---0------0---0---0-------0----
|---2------2-------2---2------0---0---0-------0----
|---3------3-------3---3------2---2---2-------2----
|-----------------------------3---3---3-------3----


|------2------------------------
|------3-----------3--------3--
|------2-----------2--------2--
|------0-------3---0----3---0--
|------------------------------
|------------------------------



Refrain

Outro:
___________7  times    ______4  times
|----2---2---2----------------|----2---2---2-----2---2----3----2------|
|----3---3---3----------------|----3---3---3-----3---3----3----3------|
|o---2---2---2---------------o|o---2---2---2-----2---2----2----2----o-|
|o---0---0---0---------------o|o---0---0---0-----0---0----0----0----o-|
|-----------------------------|---------------------------------------|
|-----------------------------|---------------------------------------|




|-------------3--------------------------------------------
|----0-------1--------------1------------------------------
|----0-------2--------------0-------------------1----3-----
|----0-------2--------------2-------------------0----------
|-------------0------------------------------0-------------
|----------------------------------------3-----------------


|------------------------------------------------------------
|---------------------------------------------------0----1---
|---0--0--0---------------------0---0------2-----------------
|---0--0--0--0-----------------0---0------3------------------
|--------------------------2---------------------------------
|------------------------------------------------------------


|-------3---3---3---3---------------3---3---3---3---
|-------1---1---1---1---------------1---1---1---1---
|-------2---2---2---2---------------2---2---2---2---
|-------3---3---3---3-----3---------3---3---3---3---
|---------------------------------------------------
|---------------------------------------------------


|---------------------------------------------------------
|----1----------0---------------------------------[12]----
|----0----------0-----0----------------------0----[12]----
|----0----------0----------------------0----------[12]----
|----2----------2-----------------------------------------
|----3----------3----------------3------------------------



Solo (over Solo Rhythm): 

        full       full               full
|--------------------------------------------
|-----10--------13-----------15---^----15----
|-----12^-------15^--------------------------
|--------------------------------------------
|--------------------------------------------
|--------------------------------------------

    1/2 1/2      full
|--------------------------------------------------------
|-----r12^---------r13----12-------12---12------13  / 15-
|--------------------------------------------------------
|--------------------------------------------------------
|--------------------------------------------------------
|--------------------------------------------------------


     full    full                                       full
full
|-----------------------------------------------------15^---15----17^-
|-------------------12--12-----13  / 15-------------------------------
|-------r14^----------------------------------------------------------
|---------------------------------------------------------------------
|---------------------------------------------------------------------
|---------------------------------------------------------------------


   full   full                        1/2            full
|-17^---17^----17---17-------19-^-------20--20^-----------------
|---------------------------------------------------------------
|---------------------------------------------------------------
|---------------------------------------------------------------
|---------------------------------------------------------------
|---------------------------------------------------------------

_________________________________________________________________________

That's the Way:
_________________________________________________________________________

Key:   ^  =  downstroke
       v  =  upstroke  
    


Open G tuning  | D |
               | B |
               | G |
               | D |
               | G |
               | D |


* (If you want you can play the fifth string also)


Riff 1
   
   ^ v ^ v  ^  ^   v   ^  v ^  ^ v ^ v  ^  ^   v ^ ^ v ^ v
|--0-0-0-0--2--4---4---4--4----4-4-4-4--2--0---0---2-2-2-0--|
|--0-0-0-0--1--3---3---0--0----3-3-3-3--1--0---0---1-1-1-0--|
|--0-0-0-0--0--0-------0-------0-0-0-0--0--0-------0-0-0-0--|
|--0-0-0-0--2--4-------0-------4-4-4-4--2--0-------2-2-2-0--|
|--*-------------------0----0--------------0-----0----------|
|-----------------------------------------------------------| 
 
Riff 2
            
   ^  v  ^  ^  ^  ^  ^  v  ^  v  ^  ^  ^ ^  ^  v  
|--3--3-----3-----3--3--3--3--3-----3----3--3--3--|
|--3--3-----3-----3--3--3--3--3-----3----3--3--3--|
|--3--------3-----3--3--3--3--------3----3--3--3--|
|--3-----3--3--3--3--3--3--3-----3--3--3-3--3--3--|
|--*-----0-----0-----------------0-----0----------|
|-------------------------------------------------|

Riff 3A                           Riff 3B   

   ^  v  ^  ^  ^  ^  ^  v            ^  v  ^  ^  ^  ^  ^  ^  
|--4--4-----4-----4--4--4--|      |--4--4-----4--4--0--2--4--|
|--3--3-----3-----3--3--3--|      |--3--3-----3--3--3--3--3--|
|--2--------2-----2--2--2--|      |--2--------2--2--2--2--2--|
|--0-----0--0--0--0--0--0--|      |--0-----0--0--0--0--0--0--|
|--0-----0--0--0--0--0--0--|      |--0-----0--0--0-----------|
|--------------------------|      |--------------------------|

Riff 4

   ^  v  ^  v  ^  ^     ^     ^  v  ^  v  ^  v  ^  ^     ^     ^  v
|--3--3--3--3-----3-----3-----3--3--0--0--0--0-----0-----0-----0--0--|
|--1--1--1--1-----1-----1-----1--1--1--1--1--1-----1-----1-----1--1--|
|--2--2--2--2--2--2-----2-----2--2--0--0--0--0--0--0-----0-----0--0--|
|--3--3--3--3--3--3-----3-----3--3--2--2--2--2--2--2-----2-----2--2--|
|--0--0--0--0--0--0-----0-----0--0--0--0--0--0--0--0-----0-----0--0--|
|--------------------------------------------------------------------|

Riff 5

   ^  ^  v    ^  ^  v    ^  ^  v    ^  ^  v    ^  v  ^  ^  ^   v  ^  v 
|--0--0--0----0--0--0----0--0--0----0--0--0----4--4-----4--4---4--4--4--|
|--0--0--0----1--1--1----3--3--3----5--5--5----3--3-----3--3---3--3--3--|
|--0--0--0----0--0--0----0--0--0----0--0--0----2--2-----2--2---2--2--2--|
|--0--0--0----2--2--2----4--4--4----5--5--5----0--0--0--0--0---0--0--0--|
|--0----------0----------0----------0--0--0----0-----0--0--0------------|
|-----------------------------------------------------------------------|

   ^  ^  ^  ^  ^   v  ^  v  ^  ^  ^  ^  ^   v  ^  v  ^  ^  ^  ^  ^   v  ^  v 
|--2--4--5--4--0---0--0--0--2--4--5--4--0---0--0--0--2--4--5--4--0---0--0--0-|
|--1--3--3--3--3---3--3--3--1--3--3--3--3---3--3--3--1--3--3--3--3---3--3--3-|
|--0--0--0--0--0---0--0--0--0--0--0--0--0---0--0--0--0--0--0--0--0---0--0--0-|
|--2--4--4--4--4---4--4--4--2--4--4--4--4---4--4--4--2--4--4--4--4---4--4--4-|
|--*-------------------------------------------------------------------------|
|----------------------------------------------------------------------------|

   ^  v  ^  ^   ^   v ^ v  ^  v  ^  ^  ^  ^   ^  v
|--4--4-----4---4---4-4-4--4--4-----4-----4---4--4--|
|--3--3-----3---3---3-3-3--3--3-----3-----3---3--3--|
|--2-----2--2---2---2-2-2--2-----2--2--2--2---2--2--|
|--0-----0--0---0---0-0-0--0-----0--0--0--0---0--0--|
|--0-----0--0---0----------0-----0--0--0--0---------|
|---------------------------------------------------|



Intro:  Riff 1  2x


  Riff 1
     I don't know how I'm going to tell you
  Riff 1
     I can't play with you no more  
  Riff 1
     I don't know how I'm going to do what mama told me
  Riff 1
     My friend the boy next door

  Riff 1  3x

  Riff 1
     I can't believe what people saying
  Riff 1
     You only let your hair down
  Riff 1
     I'm satisfied to sit here working all day long
  Riff 1
     You're in the darkest side of town
 
  Riff 1  4x

  Riff 1
     And when I'm out I see you walking
  Riff 1
     Why don't your eyes see me
  Riff 1
     Could it be you've found another game to play
  Riff 1
     What did mama say to me

  Riff 2                             Riff 1 
     That's the way   Oh  that's the way it ought to be
  Riff 2                  Riff 3A 2x 
     Mama said that's the way it ought to stay

  Riff 4

  Riff 1 1x

  Riff 1
     And yesterday I saw you standing by the river
  Riff 1
     And weren't those tears that filled your eyes
  Riff 1
     And all the fish that lay in dirty water dying
  Riff 1
     Had they got you hypnotized

  Riff 1  4x

  Riff 1
     And yesterday I saw you kissing tiny flowers
  Riff 1
     But all that lives is born to die
  Riff 1
     And so I say to you that nothing really matters
  Riff 1
     And all you do is stand and cry

  Riff 1  4x

  Riff 1
     I don't know what to say about it
  Riff 1
     When all your ears are turned away
  Riff 1
     But now's the time to look and look again at what you see
  Riff 1
     Is that the way it ought to stay

  Riff 2                        Riff 1   
     That's the way  That's the way it ought to be    Whoa don't you know now
  Riff 2                             Riff B  3x    
     Mama said  mama said that's the way it's going to stay   Ahh Ahh
  
  Riff 4
     Aaaaaaaaaah  Ahhh   Ohhhhhhhhhhhhh

  Riff 5 until end
________________________________________________________________________

Bron-Y-Aur Stomp:
________________________________________________________________________

 ->    ...  pick-slide
 //    ...  hammer-on
 \\    ...  pull-off

(e)-->e
(b)-->up to c
(g)-->g
(D)-->down to C
(A)-->A
(E)-->down to C

-------------------------------------------------------------0----------|
-------------0-----------------------0----------------------------------|
-------0-----------0-----------0-----------0-----------0-----------0----|
----------0-----------0-----------0-----------0-----------0-----------0-|
-0->3--------------------0->3--------------------0->3-------------------|
----------------0-----------------------0-----------------------0-------|

-------------0-----------------------0-----------------------0----------|
------------------------------------------------------------------------|
-------0-----------0-----------0-----------0-----------0-----------0----|
----------0-----------0-----------0-----------0-----------0-----------0-|
-0->3--------------------0->3--------------------0->3-------------------|
----------------0-----------------------0-----------------------0-------|

-------------0-----------|
-------------------------|
-------0-----------0-----|
----------0-----------0--|
-0->3--------------------|
----------------0--------|

begin 1:
----------3\\0----------------------------------|
-2--------------2-----0--------------0----------|
----0--------------------------0-----------0----|
-------2-----------2--------------0-----------0-|
-2-----------2-----------0->3-------------------|
----------------------------------------0-------|

-1--------0-----------------------------------------------3\\0----------|
----------------------0--------------0-----------2--------------2-----0-|
----0-----------0--------------0-----------0--------0-------------------|
-------2-----------2--------------0-----------0--------2-----------2----|
-2-----------2-----------0->3--------------------2-----------2----------|
----------------------------------------0-------------------------------|

-------------------------1--------0-------------------------------------|
-------------0--------------------------------0--------------0----------|
-------0-----------0--------0-----------0--------------0-----------0----|
----------0-----------0--------2-----------2--------------0-----------0-|
-0->3--------------------2-----------2-----------0->3-------------------|
----------------0-----------------------------------------------0-------|

-------------------------0-------------------------|
----------0-----------------------------0----------|
-------0-----------0--------------0-----------0----|
----0-----------------0--------------0-----------0-|
----------------------------0->3-------------------|
-5-----------5->9--------------------------0-------|

-------------------------0-------------------------|
----------0-----------------------------0----------|
-------0-----------0--------------0-----------0----|
----0-----------------0--------------0-----------0-|
----------------------------0->3-------------------|
-5-----------5->9--------------------------0-------|

----------3\\0-----------------------------------1--------0-------------|
-2--------------2-----0--------------0--------------------------------0-|
----0--------------------------0-----------0--------0-----------0-------|
-------2-----------2--------------0-----------0--------2-----------2----|
-2-----------2-----------0->3--------------------2-----------2----------|
----------------------------------------0-------------------------------|

--------------------------------------------------------|
-------------0---------------------------0-----------2--|
-------0-----------0------------------0-----------0-----|
----------0-----------0------------0-----------2--------|
-0->3------------------------0->3-----------2-----------|
----------------0---------------------------------------|

--------------------------------------------------------|
----------3>4//5--4--------0--------------0-----------2-|
-------3->4----------4-----------------0-----------0----|
----3->4----------------4-----------0-----------2-------|
-0----------------0-----------0->3-----------2----------|
--------------------------------------------------------|

--------------------------------------------------------|
----------3>4-----------0--------------0-----------2----|
-------3->4----------4--------------0-----------0-------|
----3->4----------4--------------0-----------2----------|
-0-------------0-----------0->3-----------2-------------|
--------------------------------------------------------|

---------------------------------------------------------------------|
----------3>4//5--4--------4//5--4--------4-----------5----------4---|
-------3->4----------4--------------4-----------4-----------4--------|
----3->4----------------4--------------4-----------4-----------4-----|
-0----------------0--------------0-----------0-----------0-----------|
---------------------------------------------------------------------|

-------------------------- ----------------------------]
-4->5--------5--5->7------ --0--------------0----------]
-------5--------------7--- -----------0-----------0----]repeat four times
----------5--------------7 --------------0-----------0-]
-4->5-----------5->7------ -----0->3-------------------]
----------------5->7------ --------------------0-------]
end :1

[repeat 1 but stop at the space (not at ])

-------------------------------------------------------------|
----------4-----------5-----------4-----------5-----------4--|
-------4-----------4-----------4-----------4-----------4-----|
----4-----------4-----------4-----------4-----------4--------|
-0-----------0-----------0-----------0-----------0-----------|
-------------------------------------------------------------|

-------------------------0-----------0-----------0-----------0-----------0-|
----------0-----------0-----------5-----------5-----------5-----------5----|
-------4-----------5-----------7-----------7-----------7-----------7-------|
----4-----------7-----------0-----------7-----------0-----------7----------|
-2-------------------------------------------------------------------------|
-------------0-------------------------------------------------------------|

----------0-----------0------0-|
-------5-----------5--------0--|
----7-----------7----------0---|
-0-----------7------------0----|
-------------------------3-----|
------------------------0------|
_________________________________________________________________________

Hats off to Roy Harper:
_________________________________________________________________________

e|----------------------------------------------------------------------------|
B|----------------------------------------------------------------------------|
G|-3\0-3\0-3\0--/12-12-12-12--3\0-3\0-3\0--/12-12-12-12-----------------------|
D|-3\0-3\0-3\0--/12-12-12-12--3\0-3\0-3\0--/12-12-12-12-----------------------|
A|----------------------------------------------------------------------------|
E|----------------------------------------------------------------------------|
Comments