Led Zeppelin - Jennings Farm Blues Chords & Tabs

 

Jennings Farm Blues Chords & Tabs

Led Zeppelin Chords & Tabs

Version: 1 Type: Tab 0 ratings
1 star 2 stars 3 stars 4 stars 5 stars
comments

Jennings Farm Blues Tab

Moderately:
E|--------3-------------3------3-----------3----
A|----------------------------------------------
F|----------------------------------------------
C|---2-2~-----2-----2b~-------------2---2~------
F|-2--------2---2-2-------2--2----2---2---------
E|----------------------------------------------
[ Tab from: http://www.guitartabs.cc/tabs/l/led_zeppelin/jennings_farm_blues_tab.html ]
Repeat that 4 or 5 times with some ad-lib variations, then:
                                       x2
E|---------------------------------------:-------
A|----3--5--7--5--7-----0--3--5--7--5--7-:-------
F|-0--3--5--7--5--7-----0--3--5--7--5--7-:-------
C|-0--3--5--7--5--7-----0--3--5--7--5--7-:-------
F|-0--3--5--7--5--7--0--0--3--5--7--5--7-:-------
E|---------------------------------------:-------

Go back to the first riff, then:
E|---------------------------------------------------------------------
A|---2--2--2-2--2/5-5--5-5-5-5-5~~---0--3--5--0-------0-0--3--5--0-----
F|---2--2--2-2--2/5-5--5-5-5-5-5~~---0--3--5--0-------0-0--3--5--0-----
C|-2-2--2--2-2--2/5-5--5-5-5-5-5~~---0--3--5--0----0--0-0--3--5--0-----
F|-2-2--2--2-2--2/5-5--5-5-5-5-5~~-0-0--3--5--0--0----0-0--3--5--0-----
E|---------------------------------------------------------------------
Comments