Led Zeppelin - In The Light Chords & Tabs

 

In The Light Chords & Tabs

Led Zeppelin Chords & Tabs

Version: 1 Type: Tab 0 ratings
1 star 2 stars 3 stars 4 stars 5 stars
comments

In The Light Tab

Led Zeppelin "In the Light" - Physical Graffiti

Standard Tuning

I have no idea if this is correct, but it sounds good and its a lot easier than the other submitted tablature (unless you are Superman or have a 8" spread).


"In the light..." part:
                        
E----------------------------
B---------------------------- 
G-----------------------9/---- (slide
D----7-6--5-------------7/----  down)
A-----------7--6-5----------- 
E-------------------7--------- 

[ Tab from: http://www.guitartabs.cc/tabs/l/led_zeppelin/in_the_light_tab.html ]
"hey....did you ever think..."
                                   or this may be right:
E------------------------------       E------------------------------
B-------------------3----------       B--------------------3---------
G-------2---O-2-------2-O-2----       G-------2---O-2-------------O--
D---------------4/3------------       D----------------4/3----3-2----
A---O-O------------------------       A---O-O------------------------
E------------------------------       E------------------------------


other part: (jeez the other tab makes this much harder than it is...keep it simple even if Page doesnt play it this way...and i think he does)

E------------------------------------
B---------------------------7-9-1O---
G--------------------6-7-9-----------
D-------------4-6-7------------------
A---O--4-5-7-------------------------
E------------------------------------


Questions or comments :  Rockdaze@AOL.com

Have fun!!!












Comments