Led Zeppelin - In My Time Of Dying Solos Chords & Tabs

 

In My Time Of Dying Solos Chords & Tabs

Led Zeppelin Chords & Tabs

Version: 1 Type: Tab 0 ratings
1 star 2 stars 3 stars 4 stars 5 stars
comments

In My Time Of Dying Solos Tab

#----------------------------------PLEASE NOTE--------------------------------#
#This file is the author's own work and represents their interpretation of the#
#song. You may only use this file for private study, scholarship, or research.#
#-----------------------------------------------------------------------------#
#-- File created with Instab - http://www.pconline.com/~smcarey/instab.html --#
#-----------------------------------------------------------------------------#

Author/Artist: Led Zeppelin
Title: In My Time Of Dying(solo's)
Album: Physical Graffiti
Transcribed by: Chris L.
Email: jnplgrgrngo@comcast.net

Tuning:[EAEac#e](low to high). Use a slide for these solo's.
This is a cool song. Here are my sign's:
/=slide up, \=slide down, p=pull off, h=hammer on
and ~=shake your slide.
Enjoy!

------------------------------------------------------------------------------
------------------------------------------------------------------------------
--0-2/4-0-----0-0-0-2/4-0-----0-0-0-2/4-0-----0-0-0-2/4-0-----0-0-------------
----------2/4-------------2/4-------------2/4-------------2/4-----------------
------------------------------------------------------------------------------
------------------------------------------------------------------------------
 Solo 1      (up)                                                             

--------------------------|-----------------------------|---------------------
--------------------------|-----------------------------|---------------------
-12\-------0-0-0-2/4-----0|-12\10v-------0-0-0-2/4-0----|--3\2p0-/5-----------
---------0-----------2/4--|------------0-------------2/4|---------------------
-----0h2------------------|--------0h2------------------|---------------------
--------------------------|-----------------------------|---------------------
    Switch your tone(up)                                                      

----------------|------------------------|------------------------------------
----------------|------------------------|---------------------------/12-/12\-
-3\2p0-/7--3\2p0|-3\2p0-/5-3\2p0-/7-3\2p0|-5/7-7-7-5/7-7-7-/10-10-10-/12-/12\-
----------------|------------------------|------------------------------------
----------------|------------------------|------------------------------------
----------------|------------------------|------------------------------------
                         ~~~~~~~~~~~~~~~~~~~~~~~~~~~~~~~~~~~~~~~~~~~~(down)   

-----------------------|-----12----12----12--------15----15----15-------------
-------/12\------------|-/12----12----12----12-/15----15----15----15----------
-3\2p0-/12\-0-0-0-3\2p0|------------------------------------------------------
-----------------------|------------------------------------------------------
-----------------------|------------------------------------------------------
-----------------------|------------------------------------------------------
                                                                              

-------12-------12-------12|-----5-----5|-----8-----8-----8|-----5-5----------
-11/12----11/12----11/12---|-4/5---4/5--|-7/8---7/8---7/8--|-4/5-----\3p0-----
---------------------------|------------|------------------|--------------0---
---------------------------|------------|------------------|------------------
---------------------------|------------|------------------|------------------
---------------------------|------------|------------------|------------------
                                                                              

-------------|----------------------------------|-----------------------------
-------------|----------------------------------|-----------------------------
--3\2p0-3\2p0|-0-0-0-0-0-2/4-0-----0-2/4-0-----0|-0-2/4-0-----0-0-3\2p0-/5----
-------------|-----------------2/4---------2/4--|---------2/4-----------------
-------------|----------------------------------|-----------------------------
-------------|----------------------------------|-----------------------------
                                                                              

------------------------------|-----------------------------------------------
------------------------------|-----------------------------------------------
--0-2/4-0-----0--0-2/4-0-----0|--0-/7-0-/7-0-0-0-/10-0-/10-0-0----------------
----------2/4------------2/4--|-----------------------------------------------
------------------------------|-----------------------------------------------
------------------------------|-----------------------------------------------
                                                                              
[ Tab from: http://www.guitartabs.cc/tabs/l/led_zeppelin/in_my_time_of_dying_solos_tab.html ]
-/12-12-12-12-12-12-12-12-12-12-12-12-/15-15-15-15-15-15-15-15-15-15-15-15\---
-/12-12-12-12-12-12-12-12-12-12-12-12-/15-15-15-15-15-15-15-15-15-15-15-15\---
-/12-12-12-12-12-12-12-12-12-12-12-12-/15-15-15-15-15-15-15-15-15-15-15-15\---
-/12-12-12-12-12-12-12-12-12-12-12-12-/15-15-15-15-15-15-15-15-15-15-15-15\---
------------------------------------------------------------------------------
------------------------------------------------------------------------------
   Solo 2 6:35(down)                                                          

------------------------------------------------------------------------------
------------------------------------------------------------------------------
-0-2/4-0-----0-0-0-2/4-0-----0-0-0-2/4-0-----0-0-0-2/4-0-----0-0--------------
---------2/4-------------2/4-------------2/4-------------2/4------------------
------------------------------------------------------------------------------
------------------------------------------------------------------------------
    Switch your tone(down)                                                    

------------------------------------------------------------------------------
------------------------------------------------------------------------------
-12\-------0-0-0-2/4-2/4-0-12\10v-------0-0-0-2/4-----0-----------------------
---------0----------------------------0-----------2/4-------------------------
-----0h2--------------------------0h2-----------------------------------------
------------------------------------------------------------------------------
                                                                              

---------------------------------------|--------------------------------------
---------------------------------------|--------------------------------------
--7\5/7\5/7-/12-\7-/12-\7-/12-\7-/12-\7|---------0-2/4-0-3\2p0-/5-/5-3\2p0----
---------------------------------------|-----2/5------------------------------
---------------------------------------|-0h3----------------------------------
---------------------------------------|--------------------------------------
                                                                              

------------12--------15--------12----|---------------------------------------
--------/12----12-/15----15-/12-------|---------------------------------------
-/12-12----------------------------12\|-0-/7-7-0-/5-3\2p0-3\2p0-/7-7-0-/5-----
--------------------------------------|---------------------------------------
--------------------------------------|---------------------------------------
--------------------------------------|---------------------------------------
                                                                              

------|-------------------------------|---------------------------------------
------|-------------------------------|---------------------------------------
-3\2p0|-/12-/10-10-/12\-3\2p0-/5-3\2p0|---------2/4-0--/7-7-\3-3-0------------
------|-------------------------------|-----0h2-------------------------------
------|-------------------------------|-0h2-----------------------------------
------|-------------------------------|---------------------------------------
                                                                              

-----------------------------------------12-------12--------------------------
-----------------------------------11/12----11/12-----------------------------
-/12-/12-/12-\10-/110-10-/12-12-12--------------------3\2p0-3\2p0-------------
------------------------------------------------------------------------------
------------------------------------------------------------------------------
------------------------------------------------------------------------------
 ~~~~~~~~~~~~~~~~~~~~~~~~~~~~~~~~~~~~~~~~~~~~~~~~~~~~~~~~~~~~~~~~~~(down)     

-/12-12-12-12-12-12-12-12-12-12-12-12-/15-15-15-15-15-15-15-15-15-15-15-15----
-/12-12-12-12-12-12-12-12-12-12-12-12-/15-15-15-15-15-15-15-15-15-15-15-15----
-/12-12-12-12-12-12-12-12-12-12-12-12-/15-15-15-15-15-15-15-15-15-15-15-15----
-/12-12-12-12-12-12-12-12-12-12-12-12-/15-15-15-15-15-15-15-15-15-15-15-15----
------------------------------------------------------------------------------
------------------------------------------------------------------------------
   Switch your tone again(up)                                                 

------------------------------------------------------------------------------
-------------------------3\2/3/5\3---3\2/3/5\3--------------------------------
------------------------------------------------------------------------------
------------------------------------------------------------------------------
------------------------------------------------------------------------------
------------------------------------------------------------------------------
    Riff at very end of song after coughing:(up)                              

Comments