Led Zeppelin - In My Time Of Dying Chords & Tabs

 

In My Time Of Dying Chords & Tabs

Led Zeppelin Chords & Tabs

Version: 1 Type: Bass Tab 0 ratings
1 star 2 stars 3 stars 4 stars 5 stars
comments

In My Time Of Dying Bass Tab

In My Time of Dying
by Led Zeppelin
tabbed by: Derek Monzon

This is a very simple song. On occasion JPJ adds in some octaves, 
i only displayed a few. Have fun.

1)G|-------------------------- 
  D|-/5-----------------------
  A|----0/7-0/5---------------
  E|--------------------------

2)G|--------------------------
  D|--------------------------
  A|-0-3-5--------------------
  E|-------------------------- 

3)G|------------2-------------
  D|-/5-----------------------
  A|----0/7-0/5---------------
  E|--------------------------

4)G|--------------------------
  D|--------------------------
  A|-3-2-0-2h3h5-0-3-0--------
  E|--------------------------
[ Tab from: http://www.guitartabs.cc/tabs/l/led_zeppelin/in_my_time_of_dying_btab.html ]
5)G|--------------------------                   
  D|-------------------/7-----
  A|-3-2-0-3-2-0-5-3-0--------
  E|--------------------------

6)G|--------------------------
  D|--------------------------
  A|-5-5-5--5-5-5-3
  E|--------------------------

7)G|--------------------------
  D|--------------------------
  A|-3-3-3--3-3-3-------------
  E|--------------------------

8)G|--------------------------
  D|--------------------------
  A|-/3-0-5-3-0---------------
  E|--------------------------

9)G|--------------------0-1-2-
  D|--------------------------
  A|-3-2-0-0-0-0-5-3-0--------
  E|--------------------------

10)G|-7-5--7-5--7-5
   D|----7----7----7
   A|---------------
   E|---------------

11)G|-----------------
   D|-----------------
   A|-0-3-5-----------
   E|-------0-1-2-3-5-

Comments