Led Zeppelin - I Cant Quit You Baby Chords & Tabs

 

I Cant Quit You Baby Chords & Tabs

Led Zeppelin Chords & Tabs

Version: 3 Type: Tab 0 ratings
1 star 2 stars 3 stars 4 stars 5 stars
comments

I Cant Quit You Baby Tab

-----------------------------------------------------------------------------
           Led Zeppelin - I Can't Quit You Baby (CODA Version)
-----------------------------------------------------------------------------
Transcribed by Victor Ochoa
Standard Tuning


E|------------------------------------------------
B|------------------------------------------------
G|------------------------------------------------
D|------------------------------------------------
A|------------------------------------------------
E|------------------------------------------------
  I can't quit you                         baby

E|5-----------------------------------------------
B|5-----------------------------------------------
G|5-----------------------------------------------
D|4-----------------------------------------------
A|5-----------------------------------------------
E|------------------------------------------------

E|------------------------------------------
B|------------868686868686-10--85-----------
G|-------------------------------75---------
D|---------------------------------775------
A|------------------------------------765347
E|------------------------------------------
            \--6-/\--6-/\3/\---6---/\---8--/

E|-------------------------------------
B|------------5-8-5-10------85---------
G|----------5-----------------76-------
D|5---------5------------------------57
A|-------------------------------------
E|-------------------------------------
                                    \3/

E|--------------------------------8-5-8--8-128-128
B|------------------------------------------------
G|----7---8---7-----------------------------------
D|4-----------------------------------------------
A|------------------------------------------------
E|------------------------------------------------
                                         \-3-/

E|8-5---8---8-----8-55555---8-5-------------------
B|------------------------------------------------
G|------------------------------------------------
D|------------------------------------------------
A|------------------------------------------------
E|------------------------------------------------
  \--3-/\--3-/\--3-/

E|------------------------------------------------
B|---------55858585858585858585--10----85---------
G|--------9------------------------------75-5-----
D|-----------------------------------------7-7-5--
A|------------------------------------------------
E|------------------------------------------------
               \--6-/\--6-/\--6-/      \3/\3/\3/

E|-------------------5----------------------------
B|------------------5-85--------------------------
G|----------------79----10--10-10---17----15--1315
D|--------7-5-------------------------------------
A|7-6-5-4-----------------------------------------
E|------------------------------------------------
                  \3/\3/

E|----------------------------15--15--15--15--15--
B|13--------------------------17--17--17--17--17--
G|------------------------------------------------
D|--1414------------------------------------------
A|------------------------------------------------
E|------------------------------------------------

E|------------------------------------------------
B|17----------------171513--13151715161513--15-15-
G|------------------------14--------------14------
D|------------------------------------------------
A|------------------------------------------------
E|------------------------------------------------
                                        \--3-/

E|-------------------------------------5----------
B|13---------------------------------55-85--------
G|--14-----------------------9-7575-5-----975-7---
D|------------7----------8---------7---------7-7--
A|------------7----------8------------------------
E|-------0----5----------6------------------------
                               \3/\3/\-5-/\3/

E|----------------------------10---8---7--5---5---
B|---------------------------5-------------8---875
G|6-----------6-----------------------------------
D|------------7-----------8-----------------------
A|------------7-----------8-----------------------
E|------------5-----------6-----------------------

E|------------------------------------------------
B|----5-------------------------------17--15131517
G|------------------------------------------------
D|------------------------------------------------
A|------------------------------------------------
E|------------------------------------------------

E|------------------------------------------------
B|13----------------------------------------------
G|--14141414----121212111111----------------------
D|------------------------------------------------
A|------------------------------------------------
E|------------------------------------------------

E|------------------------------------------------
B|------------------------------------------------
G|------------------------------------------------
D|------------------------------------------------
A|------------------------------------------------
E|------------------------------------------------

E|------------------------------------------------
B|-----------5585-----5585--5585--5585--5585--5585
G|----------9--------9-----9-----9-----9-----9----
D|------------------------------------------------
A|------------------------------------------------
E|------------------------------------------------

E|----------------------------8118108-------------
B|-5585--5585--5585--5585-810--------8------------
G|9-----9-----9-----9-----------------107957454-75
D|---------------------------------------------7--
A|------------------------------------------------
E|------------------------------------------------

E|--------------------------------------------10--
B|--8---------------------------------------------
G|9-----9-8-7-------------------------------------
D|------------------------------------------------
A|------------------------------------------------
E|------------------------------------------------
      \--3-/

E|8-5---8---8---8---8---8---8---7-8-7-7---6-----6-
B|----7-------------------------------------------
G|------------------------------------------------
D|------------------------------------------------
A|------------------------------------------------
E|------------------------------------------------

E|5-----------------------------------------------
B|----9-7-5--10-8-5-------------------------------
G|---------7--------7-65--------------------------
D|----------------------7-5-----------7--5555-----
A|--------------------------7-6-5-4---------------
E|------------------------------------------------

E|------------------------------------------------
B|--------8585858585858510----8-5-----------------
G|------99------------------------787-5-----------
D|--------------------------------------7-5---5---
A|------------------------------------------7-----
E|------------------------------------------------
                                      \-3-/

E|------------------------------------------------
B|--------8-8-------------------------8-------8---
G|------9---9-------------------------9-------9---
D|7-9-7-------------------------------------------
A|------------------------------------------------
E|------------------------------------------------

E|------------------------------------------------
B|7-----------------------------------------------
G|7-5---------------------------------------------
D|----7-6-5-4-----------4-4-4---4---------------7-
A|----------------------------------------------7-
E|----------------------------------------------5-
[ Tab from: http://www.guitartabs.cc/tabs/l/led_zeppelin/i_cant_quit_you_baby_tab_ver_3.html ]
E|--------------------------------------5---------
B|---------------------------------------85-------
G|-----------------------9-7-5-7-5---5-9---75-7---
D|7----------7---------8-----------7---------7----
A|7----------7---------8--------------------------
E|5----------5---------6--------------------------

E|------------------------------------------------
B|------------------------------------------5-7-8-
G|8---------------------------------------6-------
D|-----------7---------8--------------------------
A|-----------7---------8--------------------------
E|-----------5---------6--------------------------

  Guitar Solo
E|-------------------------8-9-10---12-10-9-10----
B|10----------------------------------------------
G|------------------------------------------------
D|------------------------------------------------
A|------------------------------------------------
E|------------------------------------------------

E|12-10-8-------8108------------------------------
B|--------10-10-----1010810---------20-17-16-15---
G|---------------------------9----14------------17
D|------------------------------16----------------
A|------------------------------------------------
E|------------------------------------------------
                              \--3-/

E|----------------------------------------
B|-------------------1517---------19171615
G|21-17-14--171416-17----14--1614---------
D|--------16------------------------------
A|----------------------------------------
E|----------------------------------------

E|------------------------------------------------
B|----------------------17-17-17-17-17-17-17-17-17
G|17-211714-1714-1418-18-18-18-18-18-17-17-17-17--
D|------------------------------------------------
A|------------------------------------------------
E|------------------------------------------------

E|--5-----5-----5-----5-----5-----5-----5-----5---
B|-5-85--5-85--5-85--5-85--5-85--5-85--5-85--5-85-
G|9-----9-----9-----9-----9-----9-----9-----9-----
D|------------------------------------------------
A|------------------------------------------------
E|------------------------------------------------

E|8118108---8118108---------------------03030-----
B|-------810-------810-------010-----0-5-----31---
G|--------------------779-557---2--02-2-----------
D|-------------------------------02---------------
A|------------------------------------------------
E|------------------------------------------------

E|------------------------------------------------
B|----------------------------------------585-----
G|----------0-2-0--------020----------5-79---75---
D|--0---0-2-------2-0--02---20----5775-7-------75-
A|03-30--------------30-------3057---------------7
E|-----3------------------------------------------

E|------------------------------------5--510--13--
B|-------------------------------------85---9---12
G|---------------------------------57--------9----
D|5-------252-------------------57----------------
A|-7535-3----353----------35-57-------------------
E|---------------3-----35-------------------------

E|---161615--15-----------------------------------
B|---------17--171615-----------------------------
G|-13----------------1714141714--14--141714--14---
D|-----------------------------17--17------17--17-
A|------------------------------------------------
E|------------------------------------------------

E|--------------17---------------------------------
B|------------17--202020222222-2017--17----19191919
G|141714--1421---------------------21--201919191919
D|------17-----------------------------------------
A|-------------------------------------------------
E|-------------------------------------------------

E|------------------------------------------------
B|1917--------------------------------------------
G|1917-----------------------575-579-----7--------
D|----19-7-----------8-575-57---7-----------------
A|-------7-----------87---7-----------------------
E|-------5-----------6----------------------------

E|------------------------------------------------
B|------------------------------------------------
G|5-------------------------------------------14--
D|--------7---------------8-----------------------
A|--------7---------------8-----------------------
E|--------5---------------6-----------------------

E|------------------------------------------------
B|17------17--15--13--17--------------------------
G|-------------------------------14-----------14--
D|------------------------------------------------
A|------------------------------------------------
E|------------------------------------------------

E|--------------------------------0---------------
B|17------17--15------17--13----------------------
G|----------------------------14--------------14--
D|------------------------------------------------
A|------------------------------------16----------
E|------------------------------------------------

E|----17----17----17----17----17----17----17------
B|--17----17----17----17----17----17----17--22--17
G|------21----21----21----21----21----21----------
D|19----------------------------------------------
A|------------------------------------------------
E|------------------------------------------------

E|2117--2017--2117--2017--2117--2017--------22-20- 
B|----17----17----17----17----17----17171717------
G|------------------------------------------------
D|------------------------------------------------
A|------------------------------------------------
E|------------------------------------------------

E|-24--23--23-23201917--17------------------------
B|--------------------17--2017------17------5-----
G|----------------------------201917--201917-75---
D|---------------------------------------------75-
A|-----------------------------------------------7
E|------------------------------------------------

E|------------------------------------------------
B|------------------------------------------------
G|---------------------2-6542--2------------------
D|------------------234------4------4----040------
A|65-4-3-0-354---034------------------------------
E|------------3-----------------------------------

E|--------------------------15--15--15--15--------
B|7-------------------------17--17--17--17151315--
G|--7-9-7-9---------------------------------------
D|------------------------------------------------
A|------------------------------------------------
E|------------------------------------------------
            Woman, I can't quit you babe

E|----------------------------15171517-1512-------
B|17----15171717----171513-----------------1715---
G|------------------------1412--------------------
D|------------------------------------------------
A|------------------------------------------------
E|------------------------------------------------
        I think I'm gonna put you down for a while

E|-------------------------------------------5----
B|13----------------------------------------5-75--
G|--1414--------------------------575975-579----75
D|--------------7-----------875-57------7---------
A|--------------7-----------8--7------------------
E|----------0---5-----------6---------------------

E|----------------------------10---8-7---5--------
B|----------------------------------------85------
G|------------------------------------------875-7-
D|------------7-----------8--------------------7--
A|7-6-5-------7-----------8-----------------------
E|------------5-----------6-----------------------

E|------------------------------------------------
B|------------------------------------------------
G|5-----------------------------------------------
D|------------7-----------8-----------------------
A|------------7-----------8-----------------------
E|------------5-----------6-----------------------
Comments