Led Zeppelin - How Many More Times Chords & Tabs

 

How Many More Times Chords & Tabs

Led Zeppelin Chords & Tabs

Version: 5 Type: Tab 0 ratings
1 star 2 stars 3 stars 4 stars 5 stars
comments

How Many More Times Tab

   
HOW MANY MORE TIMES
As recorded by Led Zeppelin
(From the 1969 Album LED ZEPPELIN I)


Transcribed by Cameron Kollwitz (InsaneOne)
Words and Music by Jimmy Page, John Paul Jones, and John Bonham
 

Gtr I (E A D G B E) - 'Jimmy Page - Distortion Guitar'
Gtr II (E A D G B E) - 'Overdub Guitar'
Gtr III (E A D G B E) - 'Violin Bow'


    Q=145
   4/4
    Gtr I
    W          W            Q  H.        +W
||-----------|-----------||-4--0-------|-(0)----|
||o----------|----------o||-5--3-------|-(3)----|
||-----------|-----------||-4--2-------|-(2)----|
||-----------|-----------||------------|--------|
||o----------|----------o||------------|--------|
||-----------|-----------||------------|--------|


  H.      +Q      W          E. S H.        +W           H.      +Q
|---------------|----------|-4----0-------|-(0)--------|---------------|
|---------------|----------|-5--3-3-------|-(3)--------|---------------|
|-9-------(9)\--|----------|-4--2-2-------|-(2)--------|-9-------(9)\--|
|-9-------(9)\--|----------|--------------|------------|-9-------(9)\--|
|-7-------(7)\--|----------|--------------|------------|-7-------(7)\--|
|---------------|----------|--------------|------------|---------------|


             TP          TP
  W          W          +W           Q.   E  H
|----------|----------|------------|--------------|
|----------|-7--------|-(7)--------|-7S==(2)------|
|----------|-7--------|-(7)--------|-7S==(2)------|
|----------|-7--------|-(7)--------|-7S==(2)------|
|----------|----------|------------|--------------|
|----------|----------|------------|--------------|


             TP          TP
  W          W          +W           +H      E  E Q    W
|----------|----------|------------|-----------------|------||
|----------|-7--------|-(7)--------|-(7)S===(2)------|------||
|----------|-7--------|-(7)--------|-(7)S===(2)------|------||
|----------|-7--------|-(7)--------|-(7)S===(2)------|------||
|----------|----------|------------|-----------------|------||
|----------|----------|------------|-----------------|------||


              ~          ~                  ~          ~
       |3|                  |3|      |3|                  |3|
  Q  a Q E Q  Q    Q  Q  Q  Q E   Q  Q E Q  Q    Q  Q  Q  Q E
|----------------|--------------|--------------|---------------||
|----------------|--------------|--------------|---------------||
|----------------|--------------|--------------|---------------||
|----------------|--------------|--------------|---------------||
|----5S7-5----5--|----7--5------|----7-5----5--|----7--5-------||
|-0--------7-----|-0--------7-5-|-0--0---7-----|-0--------7-5--||


              ~            ~                    ~
       |3|                     |3-|      |3|
    Q  Q E Q  Q    Q  a Q  Q   Q  E   Q  Q E Q  Q
||---------------|------------------|--------------|
||o--------------|------------------|--------------|
||---------------|------------------|--------------|
||---------------|------------------|--------------|
||o----7-5----5--|----5h7--5------5-|----7-5----5--|
||--0------7-----|-0--0-------(7)---|-0------7-----|


        ~                  ~
           |3|      |3|
  Q  Q  Q  Q E   Q  Q E Q  Q
|--------------|--------------|
|--------------|--------------|
|--------------|--------------|
|--------------|-9--9S7-------|
|----7--5----5-|-7--7S5----5--|
|-0--------7---|-0------7-----|


        ~                  ~          ~
           |3|      |3|                  |3|
  Q  Q  Q  Q E   Q  Q E Q  Q    Q  Q  Q  Q E
|--------------|--------------|---------------||
|--------------|--------------|--------------o||
|--------------|--------------|---------------||
|--------------|--------------|---------------||
|----7--5----x-|----7-5----5--|----7--5----5-o||
|-0--------7---|-0------7-----|-0--------7----||


         ~             ~                  ~
     |3|                  |3|      |3|
  Q  Q E Q  Q    Q  Q  Q  Q E   Q  Q E Q  Q
|--------------|--------------|--------------|
|--------------|--------------|--------------|
|--------------|--------------|--------------|
|--------------|--------------|--------------|
|----7-5----5--|----7--5----5-|----7-5----5--|
|-0------7-----|-0--------7---|-0------7-----|


        ~                  ~          ~
           |3|      |3|                  |3|
  Q  Q  Q  Q E   Q  Q E Q  Q    Q  Q  Q  Q E
|--------------|--------------|--------------|
|--------------|--------------|--------------|
|--------------|--------------|--------------|
|--------------|--------------|--------------|
|----7--5----5-|----7-5----5--|----7--5----5-|
|-0--------7---|-0------7-----|-0--------7---|


            ~                                ~          ~
     |3|                              |3|                  |3|
  Q  Q E Q  Q    S E. Q  S E. Q    Q  Q E Q  Q    Q  Q  Q  Q E
|--------------|-----------------|--------------|--------------||
|--------------|-3-3--3----2--2--|--------------|--------------||
|--------------|-2-2--2----2--2--|--------------|--------------||
|--------------|-0-0--0----2--2--|--------------|--------------||
|----7-5----5--|---------0----0--|----7-5----5--|----7--5------||
|-0------7-----|-----------------|-0------7-----|-0--------7-0-||


                ~          ~                  ~
         |3|                  |3|      |3|
    Q  a Q E Q  Q    Q  Q  Q  Q E   Q  Q E Q  Q
||-----------------|--------------|--------------|
||o----------------|--------------|--------------|
||-----------------|--------------|--------------|
||-----------------|--------------|--------------|
||o------7-5----5--|----7--5----5-|----7-5----5--|
||--0--0-----7-----|-0--------7---|-0------7-----|


        ~                  ~          ~
           |3|      |3|                  |3|
  Q  Q  Q  Q E   Q  Q E Q  Q    Q  Q  Q  Q E
|--------------|--------------|--------------|
|--------------|--------------|--------------|
|--------------|--------------|--------------|
|--------------|--------------|--------------|
|----7--5----5-|----7-5----5--|----7--5----5-|
|-0--------7---|-0------7-----|-0--------7---|


            ~          ~                    ~
     |3|                  |3|        |3|
  Q  Q E Q  Q    Q  Q  Q  Q E     Q  Q E Q  Q
|--------------|---------------||--------------|
|--------------|--------------o||--------------|
|--------------|---------------||--------------|
|--------------|---------------||--------------|
|----7-5----5--|----7--5----5-o||----7-5----5--|
|-0------7-----|-0--------7----||-0------7-----|


          ~                    ~          ~
             |3|        |3|
  Q  a Q  Q  Q E   Q  a Q E Q  Q    Q  Q  Q  Q
|----------------|----------------|-------------|
|----------------|----------------|-------------|
|----------------|----------------|-------------|
|----------------|----------------|-------------|
|----5h7--5------|------7-5-7--5--|----7--5-----|
|-0----------7-0-|-0--0-----7-----|-0--------7--|


              ~          ~                  ~
       |3|                  |3|      |3|               |-3-|
  Q  a Q E Q  Q    Q  Q  Q  Q E   Q  Q E Q  Q    Q  Q  Q Q Q
|----------------|--------------|--------------|-------------||
|----------------|--------------|--------------|-------7-7-7-||
|----------------|--------------|--------------|-------7-7-7-||
|----------------|--------------|--------------|----7--7-7-7-||
|------7-5----5--|----7--5----5-|----7-5----5--|----5--5-5-5-||
|-0--0-----7-----|-0--------7---|-0------7-----|-0-----------||


  W          +W           W          +W
|----------|------------|----------|--------||
|-9--------|-(9)--------|-7--------|-(7)----||
|-7--------|-(7)--------|-7--------|-(7)----||
|-7--------|-(7)--------|-7--------|-(7)----||
|-7--------|-(7)--------|-5--------|-(5)----||
|-7--------|-(7)--------|-5--------|-(5)----||


  Gtr I
   ~~~~~~~~~~~~~~~~~~~
   W              +Q    E.    S  E.    S  S     +S   S  S
|--------------|-------------12-------12------------------|
|-15b17--------|-(15)--15b17----15b17---------------------|
|--------------|-------------------------14b17r(14)p12----|
|--------------|---------------------------------------14-|
|--------------|------------------------------------------|
|--------------|------------------------------------------|
|
| Gtr II
|  ~~~~~~~~~~~~~~~~~~~
|  W              +Q    E.    S  E.    S  S     +S   S  S
|--------------|-------------12-------12------------------|
|-15b17--------|-(15)--15b17----15b17---------------------|
|--------------|-------------------------14b17r(14)p12----|
|--------------|---------------------------------------14-|
|--------------|------------------------------------------|
|--------------|------------------------------------------|


    ~~~~~~~~~~~~~~~~~~~~
                     |--3---|  |---3----|
    H               +E   E  E  E  E     E
|------------------------------------------|
|------------------------------------------|
|--------------------------12-14-14b16-14--|
|--14--------------(14)-14-----------------|
|------------------------------------------|
|------------------------------------------|
|
|                    ~~~~
|  +Q    +E   S  S   H
|------------------------------------------|
|------------------------------------------|
|------------------------------------------|
|-(14)--(14)p12h14p=12---------------------|
|------------------------------------------|
|------------------------------------------|


    |-----5------|  |-----------9-----------|
    S   S  S  S  S  E  E  E  E  E  E  E  E  E  S  S  S  S
|---------------------------------------------------------|
|---------------------------------------------------------|
|--12-----14p12----14p12----14p12----14p12----12----12-13-|
|------14-------14-------14-------14-------14----14-------|
|---------------------------------------------------------|
|---------------------------------------------------------|
|
|   ~~~~~~~~~~~~~~~~~~~~~~~~~~~~~~~~~~~~~~~~~~~~~~~~~~~~~~~
|  +W
|---------------------------------------------------------|
|---------------------------------------------------------|
|---------------------------------------------------------|
|-(12)----------------------------------------------------|
|---------------------------------------------------------|
|---------------------------------------------------------|


            ~~~~~~~~~~~~~~~        ~~~~
    S      +E.  +Q     E    E     +Q
|---------------------------------------|
|---------------------15----------------|
|--14b16==(14)-(14)--(14)r-14b16-(14)---|
|---------------------------------------|
|---------------------------------------|
|---------------------------------------|
|
|~~~~~~~~~
|  +W
|---------------------------------------|
|---------------------------------------|
|---------------------------------------|
|-(12)----------------------------------|
|---------------------------------------|
|---------------------------------------|


    ~~~~
   +Q.    E     E      E     E      E
|----------------------------------------|
|--------14b17-14pb15-------14pb15-------|
|-(14)---14b16--------14b16--------14b16-|
|----------------------------------------|
|----------------------------------------|
|----------------------------------------|
|
|   ~~~~
|  +W
|----------------------------------------|
|----------------------------------------|
|----------------------------------------|
|-(12)-----------------------------------|
|----------------------------------------|
|----------------------------------------|


    ~~~~                                  ~~
                 |--3---|     |---3----|
   +H           +Q   Q  Q     E  E  S  S  H     +E  S  S
|--------------------------|------------------------------|
|--------------------------|------------------------------|
|-(14)---------(14)-14p12h=|=14p12h14p12S11----(11)-9h11p=|
|--------------------------|------------------------------|
|--------------------------|------------------------------|
|--------------------------|------------------------------|
|
|   S  S  E Q    H            W
|--------------------------|------------------------------|
|--------------------------|------------------------------|
|--------------------------|------------------------------|
|--14p12h14S2--------------|------------------------------|
|--------------------------|------------------------------|
|--------------------------|------------------------------|


  ~~
          |-3-|       |-3-|    |-3-|       |-3-|
  H.      S S S E   E S S S Q  S S S E   E S S S
|-----------------|------------------------------|
|-----------------|------------------------------|
|-9-------2h4p2p0-|---2h4p2p0--2h4p2p0-----4p2p0-|
|-----------------|------------------------------|
|-----------------|------------------------------|
|-----------------|------------------------------|
|
| W                 H          E     S S Q
|-----------------|------------------------------|
|-----------------|------------------------------|
|-----------------|------------------4p2p0-------|
|-----------------|------------------------------|
|-----------------|------------------------------|
|-----------------|------------------------------|


                         ~~~~~~
  +Q          +Q        +H
|------------------------------------|
|------------------------------------|
|-(0)b3r======(0)-------(0)b2========|
|------------------------------------|
|------------------------------------|
|------------------------------------|
|
|  |-------3-------|
| +Q    +Q        +Q    +Q      +Q
|------------------------------------|
|------------------------------------|
|-(0)b2r(0)b2r====(0)b2r(0)b3===(0)--|
|------------------------------------|
|------------------------------------|
|------------------------------------|


   ~~~~~~~~~~~~~~~~~
         |-3-|             |-------3--------|  |-----------3-----------|
  +Q    +Q  +E  +Q   Q     Q E  S  S  E  S  S  E  S  S  E  S  S  E  S  S
|------------------------|-----15p12----15p12----15p12----15p12----15p12-|
|------------------------|-----------12-------12-------12-------12-------|
|-(0)---(0)-(0)-(0)--0r--|-----------------------------------------------|
|------------------------|-----------------------------------------------|
|------------------------|-----------------------------------------------|
|------------------------|-----------------------------------------------|
|
|  ~~~~
|                               |-----------------3-----------------|
| +W                       Q    E     E  E     E  E     E  E     E  E
|------------------------|-----15p===12-------15p12-------15p===12-------|
|------------------------|--------------12-------------12----------12----|
|-(0)r-------------------|-----------------------------------------------|
|------------------------|-----------------------------------------------|
|------------------------|-----------------------------------------------|
|------------------------|-----------------------------------------------|


   |-----------3-----------|  |-----------3------------|
   E  S  S  E  S  S  E  S  S  E  S  S  E  S  S  E     +E
|----15p12----15p12----15p12----15p12----15p12-15b17-(15)--------|
|-15-------12-------12-------12-------12-------------------------|
|----------------------------------------------------------------|
|----------------------------------------------------------------|
|----------------------------------------------------------------|
|----------------------------------------------------------------|
|
|                                                          ~~~~~~~
|  |---3----|  |---3----|     |---3----|  |-----3------|
|  E  E     E  E     E  E     E  E     E  E     E      E   A
|-15p12-------15p===12-------15p12-------15p===12---------15b17==|
|----------12----------12-------------12--------------12---------|
|----------------------------------------------------------------|
|----------------------------------------------------------------|
|----------------------------------------------------------------|
|----------------------------------------------------------------|


         |--3--|
   +Q    E  E  E       T   T  E    T  T  S  S  S  S
|-(15)--15-12---------12----------------------------|
|-------------15----------15p12---------------------|
|---------------------------------14p12----12----12-|
|---------------------------------------14----14----|
|---------------------------------------------------|
|---------------------------------------------------|
|
|~~~~~~~~~~~~~~~~~~~~~
|  +H              A   E        E        Q
|-(15)-----------(15)--xr---------------------------|
|---------------------------------------------------|
|---------------------------------------------------|
|---------------------------------------------------|
|---------------------------------------------------|
|---------------------------------------------------|


   S     +S   S  S  +S   S  S  S  S  S  S  S  S  S  S  S
|--------------------------------------------------------|
|------------15------------------------------------------|
|-14b16-(14)----14-(14)p12-14p12----12-------------------|
|--------------------------------14----14p12-12h14p12----|
|-----------------------------------------------------14p|
|--------------------------------------------------------|
|
|  W
|--------------------------------------------------------|
|--------------------------------------------------------|
|--------------------------------------------------------|
|--------------------------------------------------------|
|--------------------------------------------------------|
|--------------------------------------------------------|


                |-----3-----|     |--------3--------|
   E  Q   E     E     E     E     E     E     S     S
|------------------------------------------------------|
|------------------------------------------------------|
|------------------------------------------------------|
|------------------------------------------------------|
|-12S11h=12p===11h===12p===11h===12p===11h===12p===11h=|
|------------------------------------------------------|
|
|  H         a  S  S     S     S  S  S     S     S
|------------------------------------------------------|
|------------------------------------------------------|
|------------------------------------------------------|
|------------------------------------------------------|
|------------------------------------------------------|
|-----------16h17p16h===17p===16h17p16h===17p===16h====|


   S  S  S  S  S  S  S  S  S  S  S  S  S  S  S  S
|-------------------------------------------------|
|-------------------------------------------------|
|-------------------------------------------------|
|-------------------------------------------------|
|-12p11h12p11h12p11h12p11h12p11h12p11h12p11h12p11h|
|-------------------------------------------------|
|
|  S  S  S  S  S  S  S  S  S  S  S  S  S  S  S  S
|-------------------------------------------------|
|-------------------------------------------------|
|-------------------------------------------------|
|-------------------------------------------------|
|-------------------------------------------------|
|-17p16h17p16h17p16h17p16h17p16h17p16h17p16h17p16h|


   S  S  S  S  S  S  S  S  S  S  S  S  S  S  S  S
|--------------------------------------------------|
|--------------------------------------------------|
|--------------------------------------------------|
|--------------------------------------------------|
|-12p11h12p11h12p11h12p11h12p11h12p11h12p11h12p11h=|
|--------------------------------------------------|
|
|  S  S  S  S  S  S  S  S  S  S  S  S  S  S  S  S
|--------------------------------------------------|
|--------------------------------------------------|
|--------------------------------------------------|
|--------------------------------------------------|
|--------------------------------------------------|
|-17p16h17p16h17p16h17p16h17p16h17p16h17p16h17p16h=|


   S  S  S  S  S  S  S  S   a   E.        E.        E        Q  Q  Q  E  E
|--------------------------------------------------------|--------------------|
|--------------------------------------------------------|--------------15b17-|
|--------------------------------------------------------|--------------------|
|-------------------------(12)S21-------/21-------/17\---|--------------------|
|-12p11h12p11h12p11h12p11--------------------------------|-/19\---------------|
|--------------------------------------------------------|--------------------|
|
|  S  S  S  S  S  S  S  S       S  S  S   S  S  S   S  S     H     H
|--------------------------------------------------------|--------------------|
|--------------------------------------------------------|--------------------|
|--------------------------------------------------------|--------------------|
|--------------------------------------------------------|--------------------|
|--------------------------------------------------------|--------------------|
|-17p16h17p16h17p16h17p16h=====17p16h17p=16h17p16h=17p16h|==17s====0----------|


                                  ~~~~~~
   +Q     E   E E  Q      E       H.           +E           S    S
|------------------------------|------------------------------------|
|-(15)--(15)\-----17b20--17b20-|-17b20========(17)---------17r=(17)p|
|------------------------------|------------------------------------|
|------------------------------|------------------------------------|
|------------------------------|------------------------------------|
|------------------------------|------------------------------------|
|
|                                                           ~~~~~~~~~
|   W                             H        Q    S   S      +E
|------------------------------|------------------------------------|
|------------------------------|-------------------17b19==(17)------|
|------------------------------|------------------------------------|
|------------------------------|------------------------------------|
|------------------------------|------------------------------------|
|------------------------------|------------------------------------|


    E  E   E        T  T  T  T  E E  T  T  T  T  E
|------------------------15---------------15-------|
|--15--------------15h17----17p15---15h17----15h17-|
|--------------------------------------------------|
|--------------------------------------------------|
|--------------------------------------------------|
|--------------------------------------------------|
|
|~~~~~~                         ~~
|  +Q     +S   +S   S     S     H
|--------------------------------------------------|
|-(17)---(17)r(17)-15h===17p===15------------------|
|--------------------------------------------------|
|--------------------------------------------------|
|--------------------------------------------------|
|--------------------------------------------------|


  E  T  T  T  T  E E  T  T  T  T  E E  E
|---------15---------------15---------17-|
|---15h17----17p15---15h17----17p15------|
|----------------------------------------|
|----------------------------------------|
|----------------------------------------|
|----------------------------------------|
|
| W
|----------------------------------------|
|----------------------------------------|
|----------------------------------------|
|----------------------------------------|
|----------------------------------------|
|----------------------------------------|


   |--------3--------|
   E     +E   Q      Q      E      E      E      E
|-17b19-(17)-17pb19-17pb18-17pb19-17pb18-17pb19-17pb18-|
|------------------------------------------------------|
|------------------------------------------------------|
|------------------------------------------------------|
|------------------------------------------------------|
|------------------------------------------------------|
|
|  W
|------------------------------------------------------|
|------------------------------------------------------|
|------------------------------------------------------|
|------------------------------------------------------|
|------------------------------------------------------|
|------------------------------------------------------|


                    ~~
   S     +S   S  S  Q   +Q      +E  E   Q  E  T  S. E  T  S. E  T  S.
|-17b19r(17)p15-17-15--(15)\--/(15)---|------15p12----15p12----15p12--|
|-------------------------------------|-------------------------------|
|-------------------------------------|-------------------------------|
|-------------------------------------|-------------------------------|
|-------------------------------------|-------------------------------|
|-------------------------------------|-------------------------------|
|
|  W                                    W
|-------------------------------------|-------------------------------|
|-------------------------------------|-------------------------------|
|-------------------------------------|-------------------------------|
|-------------------------------------|-------------------------------|
|-------------------------------------|-------------------------------|
|-------------------------------------|-------------------------------|


                                               |--3--|
  E  T  S.  E      T  S.  E      T  S.  E      S  S  S
|---15p12---------15p12---------15p12---------15p12----|
|---------------------------------------------------12-|
|------------------------------------------------------|
|------------------------------------------------------|
|------------------------------------------------------|
|------------------------------------------------------|
|
| Q         T  S.  E      T  S.  E      T  S.  E
|------------------------------------------------------|
|----------15p12---------15p12---------15p12-----------|
|------------------------------------------------------|
|------------------------------------------------------|
|------------------------------------------------------|
|------------------------------------------------------|


   |-----------3-----------|                                   |---3----|
   S  S  S  S  S  S  S  S  S  S     S     E           E        E  E     E
|-15p12----15p12----15p12----15p===12----15b17-------15-------12-------12----|
|-------12-------12-------12-------------------------------------15----------|
|----------------------------------------------------------------------------|
|----------------------------------------------------------------------------|
|----------------------------------------------------------------------------|
|----------------------------------------------------------------------------|
|
|                    |------------------3-------------------|        |--3--|
|  Q                 S  S  S  S  S     S  S     S  S  S  S  S  E     S  S  S
|----------------------------------------------------------------------------|
|-------------------15p12----15p12-------15p===12----15p12----12----15p12-12-|
|-------------------------12----------12----------12-------12----------------|
|----------------------------------------------------------------------------|
|----------------------------------------------------------------------------|
|----------------------------------------------------------------------------|


                                                        |--3--|
   S  S  S     S     S      S   S  S   S     +S   S  S  e  E  E
|-----------------------------------------------------------------|
|-----------------------------------------------------------------|
|-14p12-------12---------------12-14--14b16r(14)p12-14p12-12-12---|
|-------14-----------------14-------------------------------------|
|-----------------------------------------------------------------|
|-----------------------------------------------------------------|
|
|                                      ~~~~~~~
|        |---3----|
|  E     S  S     S  S     +E.        +H
|-----------------------------------------------------------------|
|-12----15p12----12-15b17-(15)-------(15)-------------------------|
|-----------------------------------------------------------------|
|-----------------------------------------------------------------|
|-----------------------------------------------------------------|
|-----------------------------------------------------------------|


   |----3----|                                 |--3---|
   E   E.    S  S      +S   S  S  S  S  S  S  +E   E  E
|-------------------------------------------------------|
|-----------15------------------------------------------|
|-12--14b16----14pb16r(14)p12----14p12----12-(12)-------|
|-----------------------------14-------14---------12h14p|
|-------------------------------------------------------|
|-------------------------------------------------------|
|
|  ~~~
|  H.                                          Q
|-------------------------------------------------------|
|-15----------------------------------------------------|
|-------------------------------------------------------|
|-------------------------------------------------------|
|-------------------------------------------------------|
|-------------------------------------------------------|


   ~~~~~~~~~~~~~~~~~~~~~~~~~~~~
                                          |----3----|
   W                       +H             Q    Q    Q
|-----------------------|------------------------------|
|-----------------------|------------------------------|
|-----------------------|------------------------------|
|-12--------------------|-(12)-----------12---14---16--|
|-----------------------|------------------------------|
|-----------------------|------------------------------|
|
|     |-3-| |-3-| |-3-|     |-3--| |-3-|  |-3--|
|  Q  E E E E E E E E E     E  E E E E E  E E  E Q
|-----------------------|------------------------------|
|-----------------------|------------------------------|
|--9--------------------|------------------------------|
|--9--------------------|------------------------------|
|--7--7-7-7-7-7-7-7-7-7-|---7--7-7-7-7-7--7-7--7-7-----|
|--0--0-0-0-0-0-0-0-0-0-|---0--0-0-0-0-0--0-0--0-0-----|


                         ~~~~~~~~~~~~~~~~~
    |-------3-------|
   +E      +E      +E   +H.
|----------------------------------------|
|----------------------------------------|
|----------------------------------------|
|-(16)b18r(16)b18-(16)-(16)--------------|
|----------------------------------------|
|----------------------------------------|
|
|                        |-3--|    |-3-|
|   q                    E  E E q  E E E
|----------------------------------------|
|----------------------------------------|
|----------------------------------------|
|---6--------------------6--6-6-6--6-6-6-|
|---7--------------------7--7-7-7--7-7-7-|
|----------------------------------------|

[ Tab from: http://www.guitartabs.cc/tabs/l/led_zeppelin/how_many_more_times_tab_ver_5.html ]
 ~~~~~~                            ~~
               |--3--|  |--3--|
   +Q   Q      Q     E  E  E  E    W
|-------------------------------|--------------------|
|-------------------------------|--------------------|
|-------------------------------|--------------------|
|-(16)--------16b18r===14-16-14-|-12-----------------|
|-------------------16----------|--------------------|
|-------------------------------|--------------------|
|
|       |-3-|  |-----3-----|          |-3-|    |-3-|
|   q   E E E  Q     Q     Q       q  E E E q  E E E
|-------------------------------|--------------------|
|-------------------------------|--------------------|
|-------------------------------|--------------------|
|---6---6-6-6--7S====9S====7----|--7--6-6-6-6--6-6-6-|
|---7---7-7-7--9S===11S====9----|--9--7-7-7-7--7-7-7-|
|-------------------------------|--------------------|


                                ~~~~~~~~~~~~~~~~~~~~
             |-----3-----|
   H         Q  Q  +E   +E     +W
|---------------------------|----------------------|
|---------------------------|----------------------|
|---------------------------|----------------------|
|-12--------14-16-(16)-(16)-|-(16)-----------------|
|---------------------------|----------------------|
|---------------------------|----------------------|
|
|     |-3-|  |--3---|               |-3-|    |-3-|
|  q  E E E  Q  Q   Q           q   E E E q  E E E
|---------------------------|----------------------|
|---------------------------|----------------------|
|---------------------------|----------------------|
|--6--6-6-6--7S=9S==7-------|---6---6-6-6-6--6-6-6-|
|--7--7-7-7--9S11S==9-------|---7---7-7-7-7--7-7-7-|
|---------------------------|----------------------|


 ~~~~~~
                       |--------3--------|
   +Q   E    E        +E   +Q      E  E  E
|-------------------------------------------|
|-------------------------------------------|
|-------------------------------------------|
|-(16)------16b18====(16)r(16)----14h16p14S=|
|-------------------------------------------|
|-------------------------------------------|
|
|       |----3-----|   |------3-------|
|   q   E E        E   Q        Q     Q
|-------------------------------------------|
|-------------------------------------------|
|-------------------------------------------|
|---6---6-6--------6---7S=======9S====7-----|
|---7---7-7--------7---9S======11S====9-----|
|-------------------------------------------|


   ~~~~~~~~~~~~~~~~~~~~~~~~~
                                    |--3--|
   W                    +H          Q  Q  Q
|--------------------|--------------------------|
|--------------------|--------------------------|
|--------------------|-------------13-14-13-----|
|-12-----------------|-(12)--------14-16-16b18==|
|--------------------|--------------------------|
|--------------------|--------------------------|
|
|     |-3-|    |-3-|         |-3-|  |--3--|
|  q  E E E q  E E E     q   E E E  Q  Q  Q
|--------------------|--------------------------|
|--------------------|--------------------------|
|--------------------|--------------------------|
|--6--6-6-6-6--6-6-6-|---6---6-6-6--7S=9S=7-----|
|--7--7-7-7-7--7-7-7-|---7---7-7-7--9S11S=9-----|
|--------------------|--------------------------|


                         ~~~~
    |-------3-------|
    E     +E       +E   +H.
|-------------------------------------------|
|-------------------------------------------|
|--14b15r(14)b15--(14)-(14)-----------------|
|-(16)r==(16)b18==(16)-(16)-----------------|
|-------------------------------------------|
|-------------------------------------------|
|
|                        |-3--| |-3-| |-3-|
|   Q                    E  E E E E E E E E
|-------------------------------------------|
|------------------------9--9-9-9-9-9-9-9-9-|
|---9--------------------9--9-9-9-9-9-9-9-9-|
|---9--------------------9--9-9-9-9-9-9-9-9-|
|---7--------------------7--7-7-7-7-7-7-7-7-|
|-------------------------------------------|


    ~~~~                                         ~~
                          |--------3--------|
   +Q.          E        +Q     +E    E  E  E    W
|---------------------------------------------|--------------------------|
|---------------------------------------------|--------------------------|
|-(14)---------14b16====(14)---(14)--13h14p13s|=11-----------------------|
|-(16)---------16b18====(16)---(16)r-14-16-14s|=12-----------------------|
|---------------------------------------------|--------------------------|
|---------------------------------------------|--------------------------|
|
|   |-3--| |----3-----|   |--3---|    |--3--|    |-3-| |-3-| |-3-| |-3-|
|   E  E E E E        E   E  E   E    E  E  E    E E E E E E E E E E E E
|---------------------------------------------|--------------------------|
|---9--9-9-9-9--------9---9--9---9------------|----9-9-9-9-9-9-9-9-9-9-9-|
|---9--9-9-9-9--------9---9--9---9----7S=9S=7-|----9-9-9-9-9-9-9-9-9-9-9-|
|---9--9-9-9-9--------9---9--9---9----7S=9S=7-|----9-9-9-9-9-9-9-9-9-9-9-|
|---7--7-7-7-7--------7---7--7---7----5S=7S=5-|----7-7-7-7-7-7-7-7-7-7-7-|
|---------------------------------------------|--------------------------|


    ~~~~
   +H             a  S  S    S    S  S  S    S    S
|---------------------------------------------------|
|---------------------------------------------------|
|-(11)-----------11h13p11h==13p==11h13p11h==13p==11h|
|-(12)----------------------------------------------|
|---------------------------------------------------|
|---------------------------------------------------|
|
|   |-3--| |-3-|     |----3----|     |----3----|
|   E  E E E E E     E    E    E     E    E    E
|---------------------------------------------------|
|---9--9-9-9-9-9-----9----9----9-----9----9----9----|
|---9--9-9-9-9-9-----9----9----9-----9----9----9----|
|---9--9-9-9-9-9-----9----9----9-----9----9----9----|
|---7--7-7-7-7-7-----7----7----7-----7----7----7----|
|---------------------------------------------------|


   S  S   E   Q     H             W
|-------------------------------|-------------------------|
|-------------------------------|-------------------------|
|-13p11-------------------------|-------------------------|
|-------------------------------|-------------------------|
|-------------------------------|-------------------------|
|-------------------------------|-------------------------|
|
|                                 <
|  |---3----| |-3-| |-3-| |-3-|   |-3-| |-3-| |-3-| |-3-|
|  E    E   E E E E E E E E E E   E E E E E E E E E E E E
|-------------------------------|-------------------------|
|--9----9---9-9-9-9-9-9-9-9-9-9-|-9-9-9-9-9-9-9-9-9-9-9-9-|
|--9----9---9-9-9-9-9-9-9-9-9-9-|-9-9-9-9-9-9-9-9-9-9-9-9-|
|--9----9---9-9-9-9-9-9-9-9-9-9-|-9-9-9-9-9-9-9-9-9-9-9-9-|
|--7----7---7-7-7-7-7-7-7-7-7-7-|-7-7-7-7-7-7-7-7-7-7-7-7-|
|-------------------------------|-------------------------|


                           Gtr III
  H     H      W           H     H      Q  E E +H       +W           +W
|------------|----------||------------|---------------|------------|--------|
|------------|----------||-9\---------|---------------|------------|--------|
|-9\---------|----------||-9\---------|---------------|------------|--------|
|-9\---------|----------||-9\---------|---------------|------------|--------|
|-7\---------|----------||-7\---------|---------------|------------|--------|
|------------|----------||------------|------0-(0)----|-(0)--------|-(0)----|


                      TP                                                 TP
  +W           +Q.    E  +Q   Q    W          +W           +W            W
|------------|-------12-(12)-----|----------|------------|------------|-12-----|
|------------|--------9--(9)-----|-0--------|------------|------------|-12-----|
|------------|--------9--(9)-----|----------|------------|------------|-12-----|
|------------|--------9--(9)-----|----------|------------|------------|--------|
|------------|-------------------|----------|------------|------------|--------|
|-(0)--------|-(0)---------------|-0--------|-(0)--------|-(0)--------|-(0)----|


  H     H       +W           Q.  E +H       +W           H     H       +W
|------------|-------------|--------------|------------|------------|---------|
|------------|-------------|--------------|------------|------------|---------|
|------------|-------------|--------------|------------|------------|---------|
|------------|-------------|--------------|------------|------------|---------|
|------------|-------------|--------------|------------|------------|---------|
|-7s===10----|-(10)--------|-7s==0-(0)----|-(0)--------|-7s===10----|-(10)----|


  H    H      +W           H     H
|-----------|------------|------------|
|-----------|------------|------------|
|-----------|------------|------------|
|-----------|------------|------------|
|-----------|------------|------------|
|-7s===0----|-(0)--------|-7s===10----|


   +W           H    H      W
|-------------|-----------|------|
|-------------|-----------|------|
|-------------|-----------|------|
|-------------|-----------|------|
|-------------|-----------|------|
|-(10)--------|-7s===0----|-0----|


  H     H       +W           H    H      +W
|------------|-------------|-----------|--------|
|------------|-------------|-----------|--------|
|------------|-------------|-----------|--------|
|------------|-------------|-----------|--------|
|------------|-------------|-9---------|--------|
|-7s===10----|-(10)--------|-7s===0----|-(0)----|


                                 ~~~~~~~~~~~~~~~~
  E  E  H.         +W            W           +W
|---------------|-------------|-----------|---------|
|---------------|-------------|-----------|---------|
|---------------|-------------|-----------|---------|
|---------------|-------------|-----------|---------|
|---------------|-------------|-----------|---------|
|---10s12-------|-(12)--------|-10--------|-(10)----|


    ~~~~~~~~~~~~~~~~
    W           +W            W           +W
|------------|-------------|-----------|---------|
|------------|-------------|-----------|---------|
|------------|-------------|-----------|---------|
|------------|-------------|-----------|---------|
|------------|-------------|-----------|---------|
|-/12--------|-(12)--------|-10--------|-(10)----|


   Q.   E   H        W           +W            +W
|-----------------|-----------|-------------|---------|
|-----------------|-----------|-------------|---------|
|-----------------|-----------|-------------|---------|
|-----------------|-----------|-------------|---------|
|-----------------|-----------|-------------|---------|
|-10s==12-(12)s===|=10--------|-(10)--------|-(10)----|


                       |--3--|    |--3--|
   W           +H      Q  Q  Q    S  S  S  E  H.
|-----------|------------------|--------------------|
|-----------|------------------|--------------------|
|-----------|------------------|--------------------|
|-----------|------------------|--------------------|
|-----------|------------------|--------------------|
|-12--------|-(12)s===14s16s14p|=12h14p12s10-10-----|


                                        |-----3-----|
   +H.       +E   +E    H     Q.   E    Q  E  E  E  E  H
|---------------------|--------------|----------------------|
|---------------------|--------------|----------------------|
|---------------------|--------------|----------------------|
|---------------------|--------------|----------------------|
|---------------------|--------------|----------------------|
|-(10)------(10)-(10)S|=4s===12s==14s|=16s14p12h14p12s10----|


   +W            +H.       +Q     H     H
|-------------|-----------------|------------|
|-------------|-----------------|------------|
|-------------|-----------------|------------|
|-------------|-----------------|------------|
|-------------|-----------------|------------|
|-(10)--------|-(10)------(10)s=|=0s===12----|


   |-3-|       |------3-------|
   H   Q      +Q   +E   E  E  E    W           +H      H
|-------------------------------|-----------|----------------|
|-------------------------------|-----------|----------------|
|-------------------------------|-----------|----------------|
|-------------------------------|-----------|----------------|
|-------------------------------|-----------|----------------|
|-12--14b16==(14)r(14)-12-14-12-|-10--------|-(10)----10S====|


  Gtr III
                                                                       TP
                                   |----3----|      |--3--|
  Q     H.              +H         Q    Q    Q      S  S  S  E  +Q     H
|--------------------|---------------------------|--------------------10-------|
|--------------------|---------------------------|--------------------10-------|
|--------------------|---------------------------|-----------------------------|
|--------------------|---------------------------|-----------------------------|
|--------------------|---------------------------|-----------------------------|
|-0/---12------------|-(12)-------14S==16S==14S==|=12-14-12-10-(10)------------|
|
| Gtr II
| <
| E  E  E  E E E E E     E  E E E  E E    E    E    E        E   E  E  E E E E
|--------------------|---------------------------|-----------------------------|
|----9-----9---9---9-|------9---9----9---------9-|-----------9------9----9---9-|
|----9-----9---9---9-|------9---9----9---------9-|-----------9------9----9---9-|
|----9-----9---9---9-|------9---9----9---------9-|-----------9------9----9---9-|
|----7-----7---7---7-|------7---7----7---------7-|-----------7------7----7---7-|
|--------------------|---------------------------|-----------------------------|


    TP    TP               TP
   +Q     H.              +W
|-(10)S==12------------|-(12)---------------|
|-(10)S==12------------|-(12)---------------|
|----------------------|--------------------|
|----------------------|--------------------|
|----------------------|--------------------|
|----------------------|--------------------|
|
|   E  E  E  E E E E E     E  E E E E E E E
|----------------------|--------------------|
|------9-----9---9---9-|------9---9---9---9-|
|------9-----9---9---9-|------9---9---9---9-|
|------9-----9---9---9-|------9---9---9---9-|
|------7-----7---7---7-|------7---7---7---7-|
|----------------------|--------------------|


    TP                   TP
   +W                   +W
|-(12)---------------|-(12)---------------|
|-(12)---------------|-(12)---------------|
|--------------------|--------------------|
|--------------------|--------------------|
|--------------------|--------------------|
|--------------------|--------------------|
|
|   E  E E E E E E E     E  E E E E E E E
|--------------------|--------------------|
|------9---9---9---9-|------9---9---9---9-|
|------9---9---9---9-|------9---9---9---9-|
|------9---9---9---9-|------9---9---9---9-|
|------7---7---7---7-|------7---7---7---7-|
|--------------------|--------------------|


    TP
    W
|-(12)-----------------------|
|-(12)-----------------------|
|----------------------------|
|----------------------------|
|----------------------------|
|----------------------------|
|
|   |-3--| |-3-| |-3-| |-3-|
|   E  E E E E E E E E E E E
|----------------------------|
|---9--9-9-9-9-9-9-9-9-9-9-9-|
|---9--9-9-9-9-9-9-9-9-9-9-9-|
|---9--9-9-9-9-9-9-9-9-9-9-9-|
|---7--7-7-7-7-7-7-7-7-7-7-7-|
|----------------------------|


    TP                           TP
   +W                           +W
|-(12)-----------------------|-(12)------------------------|
|-(12)-----------------------|-(12)------------------------|
|----------------------------|-----------------------------|
|----------------------------|-----------------------------|
|----------------------------|-----------------------------|
|----------------------------|-----------------------------|
|
|   |-3--| |-3-| |-3-| |-3-|     |-3--| |-3-| |-3-| |-3-|
|   E  E E E E E E E E E E E     E  E E E E E E E E E E E
|----------------------------|-----------------------------|
|---9--9-9-9-9-9-9-9-9-9-9-9-|---9--9-9-9-9-9-9-9-9-9-9-9--|
|---9--9-9-9-9-9-9-9-9-9-9-9-|---9--9-9-9-9-9-9-9-9-9-9-9--|
|---9--9-9-9-9-9-9-9-9-9-9-9-|---9--9-9-9-9-9-9-9-9-9-9-9--|
|---7--7-7-7-7-7-7-7-7-7-7-7-|---7--7-7-7-7-7-7-7-7-7-7-7--|
|----------------------------|-----------------------------|


                                 <
    TP                           TP
    W                           +W
|-(12)-----------------------|-(12)-----------------------|
|-(12)-----------------------|-(12)-----------------------|
|----------------------------|----------------------------|
|----------------------------|----------------------------|
|----------------------------|----------------------------|
|----------------------------|----------------------------|
|
|   |-3--| |-3-| |-3-| |-3-|     |-3--| |-3-| |-3-| |-3-|
|   E  E E E E E E E E E E E     E  E E E E E E E E E E E
|----------------------------|----------------------------|
|---9--9-9-9-9-9-9-9-9-9-9-9-|---9--9-9-9-9-9-9-9-9-9-9-9-|
|---9--9-9-9-9-9-9-9-9-9-9-9-|---9--9-9-9-9-9-9-9-9-9-9-9-|
|---9--9-9-9-9-9-9-9-9-9-9-9-|---9--9-9-9-9-9-9-9-9-9-9-9-|
|---7--7-7-7-7-7-7-7-7-7-7-7-|---7--7-7-7-7-7-7-7-7-7-7-7-|
|----------------------------|----------------------------|


 5/4
    TP
   +W                         +Q
|-(12)-----------------------(12)--||
|-(12)-----------------------(12)--||
|----------------------------------||
|----------------------------------||
|----------------------------------||
|----------------------------------||
|
|   |-3--| |-3-| |-3-| |-3-|
|   E  E E E E E E E E E E E   Q
|----------------------------------||
|--------------------------9-------||
|---9--9-9-9-9-9-9-9-9-9-9-9---9---||
|---9--9-9-9-9-9-9-9-9-9-9-9---9---||
|---7--7-7-7-7-7-7-7-7-7-7-7---7---||
|------------------------------0---||


  Tempo 2 Q.=Q
 4/4
  Gtr I
  H    Q  Q    H    Q  Q    H    Q  Q
|------------|------------|------------|
|---------8--|---------8--|---------8--|
|---------7--|---------7--|---------7--|
|---------6--|---------6--|---------6--|
|---------7--|---------7--|---------7--|
|------------|------------|------------|


  H    Q  Q    H    Q  Q    H    Q  Q
|------------|------------|------------|
|---------8--|---------8--|---------8--|
|---------7--|---------7--|---------7--|
|---------6--|---------6--|---------6--|
|---------7--|---------7--|---------7--|
|------------|------------|------------|


  H    Q  Q    H    Q  Q
|------------|------------|
|---------8--|---------8--|
|---------7--|---------7--|
|---------6--|---------6--|
|---------7--|---------7--|
|------------|------------|


  H    Q  Q    H    Q  Q
|------------|------------|
|---------8--|---------8--|
|---------7--|---------7--|
|---------6--|---------6--|
|---------7--|---------7--|
|------------|------------|


  H    Q  Q    H    Q  Q    H    Q  Q
|------------|------------|------------|
|---------8--|---------8--|---------8--|
|---------7--|---------7--|---------7--|
|---------6--|---------6--|---------6--|
|---------7--|---------7--|---------7--|
|------------|------------|------------|


  H    Q  Q     E S S S E S S   +S  E E. +S     E S S S E S S   +S  E E. +S
|------------||-------------------------------|-------------------------------|
|---------8--||-----------------------8--(8)\-|-----------------------8--(8)\-|
|---------7--||-----------------------7--(7)\-|-----------------------7--(7)\-|
|---------6--||-----------------------6--(6)\-|-----------------------6--(6)\-|
|---------7--||-----------------------7--(7)\-|-----------------------7--(7)\-|
|------------||-0-0-0-3-5-5-6b7-(6)-0---------|-0-0-0-3-5-5-6b7-(6)-0---------|


  E S S S E S S   +S  E E. +S
|-------------------------------|
|-----------------------8--(8)\-|
|-----------------------7--(7)\-|
|-----------------------6--(6)\-|
|-----------------------7--(7)\-|
|-0-0-0-3-5-5-6b7-(6)-0---------|


  E S S S E S S   +S  E E. +S     E S S S E S S   +S  E E. +S
|-------------------------------|-------------------------------|
|-----------------------8--(8)\-|-----------------------8--(8)\-|
|-----------------------7--(7)\-|-----------------------7--(7)\-|
|-----------------------6--(6)\-|-----------------------6--(6)\-|
|-----------------------7--(7)\-|-----------------------7--(7)\-|
|-0-0-0-3-5-5-6b7-(6)-0---------|-0-0-0-3-5-5-6b7-(6)-0---------|


  E S S S E S S   +S  E E. +S
|-------------------------------|
|-----------------------8--(8)\-|
|-----------------------7--(7)\-|
|-----------------------6--(6)\-|
|-----------------------7--(7)\-|
|-0-0-0-3-5-5-6b7-(6)-0---------|


  E S S S E S S   +S  E E. +S     E S S S E S S   +S  E E. +S
|-------------------------------|-------------------------------|
|-----------------------8--(8)\-|-----------------------8--(8)\-|
|-----------------------7--(7)\-|-----------------------7--(7)\-|
|-----------------------6--(6)\-|-----------------------6--(6)\-|
|-----------------------7--(7)\-|-----------------------7--(7)\-|
|-0-0-0-3-5-5-6b7-(6)-0---------|-0-0-0-3-5-5-6b7-(6)-0---------|


  E S S S E S S   +S  E E. +S
|-------------------------------|
|-----------------------8--(8)\-|
|-----------------------7--(7)\-|
|-----------------------6--(6)\-|
|-----------------------7--(7)\-|
|-0-0-0-3-5-5-6b7-(6)-0---------|


  E S S S E S S   +S  E E. +S     E S S S E S S   +S  E E. +S
|-------------------------------|-------------------------------|
|-----------------------8--(8)\-|-----------------------8--(8)\-|
|-----------------------7--(7)\-|-----------------------7--(7)\-|
|-----------------------6--(6)\-|-----------------------6--(6)\-|
|-----------------------7--(7)\-|-----------------------7--(7)\-|
|-0-0-0-3-5-5-6b7-(6)-0---------|-0-0-0-3-5-5-6b7-(6)-0---------|


  E S S S E S S   +S  E E E    E E E E E E E E
|---------------------------||-----------------|
|-----------------------8---||-----------------|
|-----------------------7---||-4-4-4-4-4-4-4-4-|
|-----------------------6---||-4-4-4-4-4-4-4-4-|
|-----------------------7-0-||-2-2-2-2-2-2-2-2-|
|-0-0-0-3-5-5-6b7-(6)-0---0-||-----------------|


              |-3-| |3|
  E S S S E S S S S E S S S E   Q  Q  E E E E   E E E E Q  Q
|-----------------------------|---------------|---------------|
|-----------------------------|-------3-3-3---|---------------|
|-4-----2-2-2-4p2---2---2---2-|-2--2--2-2-2-2-|-2-2-2---5--5--|
|-4-2h4-----------4---4---4---|-2--2--2-2-2-2-|-2-2-2---5--5--|
|-2---------------------------|-0--0--0-0-0-0-|-0-0-0---5--5--|
|-----------------------------|---------------|-------0-3--3--|


  A tempo 1 Q=Q.
  W          W          W          W
|----------|----------|----------|------|
|----------|----------|----------|------|
|----------|----------|----------|------|
|-2--------|----------|----------|------|
|-2--------|----------|----------|------|
|-0--------|----------|----------|------|


  W          W          W          W          W
|----------|----------|----------|----------|------||
|----------|----------|----------|----------|------||
|----------|----------|----------|----------|------||
|----------|----------|----------|----------|------||
|----------|----------|----------|----------|------||
|----------|----------|----------|----------|------||


            ~          ~                  ~          ~
     |3|                  |3|      |3|                  |3|
  Q  Q E Q  Q    Q  Q  Q  Q E   Q  Q E Q  Q    Q  Q  Q  Q E
|--------------|--------------|--------------|--------------||
|--------------|--------------|--------------|--------------||
|--------------|--------------|--------------|--------------||
|--------------|--------------|--------------|--------------||
|----7-5----5--|----7--5------|----7-5----5--|----7--5------||
|-0------7-----|-0--------7-0-|-0------7-----|-0--------7-0-||


              ~          ~                  ~
       |3|                  |3|      |3|
    Q  Q E Q  Q    Q  Q  Q  Q E   Q  Q E Q  Q
||---------------|--------------|--------------|
||o--------------|--------------|--------------|
||---------------|--------------|--------------|
||---------------|--------------|--------------|
||o----7-5----5--|----7--5------|----7-5----5--|
||--0------7-----|-0--------7-0-|-0------7-----|


        ~                  ~
           |3|      |3|
  Q  Q  Q  Q E   Q  Q E Q  Q
|--------------|--------------|
|--------------|--------------|
|--------------|--------------|
|--------------|--------------|
|----7--5----5-|----7-5----5--|
|-0--------7---|-0------7-----|


        ~                  ~
           |3|      |3|
  Q  Q  Q  Q E   Q  Q E Q  Q    S E. Q  S E. Q
|--------------|--------------|------------------||
|--------------|--------------|-3-3--3--2-2--2--o||
|--------------|--------------|-2-2--2--2-2--2---||
|--------------|--------------|-0-0--0--2-2--2---||
|----7--5------|----7-5----5--|---------0-0--0--o||
|-0--------7-x-|-0------7-----|------------------||


            ~              ~
     |3|            |3|
  Q  Q E Q  Q    Q  Q E Q  Q
|--------------|--------------|
|--------------|--------------|
|--------------|--------------|
|--------------|--------------|
|----7-5-------|----7-5----5--|
|-0------7--5--|-0------7-----|


            ~            ~                  ~
     |3|                    |3|      |3|
  Q  Q E Q  Q    Q  Q  a Q  Q E   Q  Q E Q  Q
|--------------|----------------|---------------|
|--------------|----------------|---------------|
|--------------|----------------|---------------|
|--------------|----------------|---------------|
|----7-5----5--|----7----5----5-|----7-5----5---|
|-0------7-----|-0-----0----7---|-0------7------|


        ~                  ~
           |3|      |3|         |-3-| |-3-|
  Q  Q  Q  Q E   Q  Q E Q  Q    Q Q Q Q Q Q
|--------------|--------------|-2-2-2-0-0-0-|
|--------------|--------------|-3-3-3-2-2-2-|
|--------------|--------------|-2-2-2-2-2-2-|
|--------------|--------------|-0-0-0-2-2-2-|
|----7--5------|----7-5----5--|-------0-0-0-|
|-0--------7-0-|-0------7-----|-------------|


            ~          ~
     |3|                  |3|
  Q  Q E Q  Q    Q  Q  Q  Q E
|--------------|--------------|
|--------------|--------------|
|--------------|--------------|
|--------------|--------------|
|----7-5----5--|----7--5------|
|-0------7-----|-0--------7-0-|


            ~                            ~
     |3|         |-3-| |-3-|      |3|
  Q  Q E Q  Q    Q Q Q Q Q Q   Q  Q E Q  Q
|--------------|-2-2-2-0-0-0-|--------------|
|--------------|-3-3-3-2-2-2-|--------------|
|--------------|-2-2-2-2-2-2-|--------------|
|--------------|-0-0-0-2-2-2-|--------------|
|----7-5----5--|-------0-0-0-|----7-5----5--|
|-0------7-----|-------------|-0------7-----|


        ~                  ~
           |3|      |3|         |-3-| |-3-|
  Q  Q  Q  Q E   Q  Q E Q  Q    Q Q Q Q Q Q
|--------------|--------------|-2-2-2-0-0-0-|
|--------------|--------------|-3-3-3-2-2-2-|
|--------------|--------------|-2-2-2-2-2-2-|
|--------------|--------------|-0-0-0-2-2-2-|
|----7--5------|----7-5----5--|-------0-0-0-|
|-0--------7-0-|-0------7-----|-------------|


             |-3-| |-3-|
  W          Q Q Q Q Q Q
|-0--------|-2-2-2-0-0-0-|
|-0--------|-3-3-3-2-2-2-|
|-1--------|-2-2-2-2-2-2-|
|-2--------|-0-0-0-2-2-2-|
|-2--------|-------0-0-0-|
|-0--------|-------------|


             |-3-| |-3-|
  W          Q Q Q Q Q Q   W
|-0--------|-2-2-2-0-0-0-|-0----|
|-0--------|-3-3-3-2-2-2-|-0----|
|-1--------|-2-2-2-2-2-2-|-1----|
|-2--------|-0-0-0-2-2-2-|-2----|
|-2--------|-------0-0-0-|-2----|
|-0--------|-------------|-0----|


                H.=H
  |-3-| |-3-|
  Q Q Q Q Q Q   W          W          Q   Q  H
|-2-2-2-0-0-0-|-0--------|----------|-------------*|
|-3-3-3-2-2-2-|-0--------|-8--------|-------------*|
|-2-2-2-2-2-2-|-1--------|-7--------|-------------*|
|-0-0-0-2-2-2-|-2--------|-6--------|-------------*|
|-------0-0-0-|-2--------|-7--------|-------------*|
|-------------|-0--------|----------|-x\----------*|




--------------------------------------------------------------------------------


Duration Legend
---------------
W - whole; H - half; Q - quarter; E - 8th; S - 16th; T - 32nd; X - 64th; a - acciaccatura
+ - note tied to previous; . - note dotted; .. - note double dotted
Uncapitalized letters represent notes that are staccato (1/2 duration)
Irregular groupings are notated above the duration line
Duration letters will always appear directly above the note/fret number it represents the
duration for.  Duration letters with no fret number below them represent rests.  Multi-
bar rests are notated in the form Wxn, where n is the number of bars to rest for.  Low
melody durations appear below the staff

Tablature Legend
----------------
 h   - hammer-on
 p   - pull-off
 b   - bend
 pb  - pre-bend
 r   - bend release (if no number after the r, then release immediately)
 /\  - slide into or out of (from/to "nowhere")
 s   - legato slide
 S   - shift slide
 - natural harmonic
[n]  - artificial harmonic
n(n) - tapped harmonic
 ~   - vibrato
 tr  - trill
 T   - tap
 TP  - trem. picking
 PM  - palm muting
\n/  - tremolo bar dip; n = amount to dip
 \n  - tremolo bar down
 n/  - tremolo bar up
/n\  - tremolo bar inverted dip
 =   - hold bend; also acts as connecting device for hammers/pulls
 <> - volume swell (louder/softer)
 x   - on rhythm slash represents muted slash
 o   - on rhythm slash represents single note slash

Misc Legend
-----------
 |  - bar
||  - double bar
||o - repeat start
o|| - repeat end
*|  - double bar (ending)
 :  - bar (freetime)
 $  - Segno
 &  - Coda
Tempo markers -  = BPM(8/16=s8/s16), where s8 = swing 8ths, s16 = swing 16ths
Comments