Led Zeppelin - How Many More Times Chords & Tabs

 

How Many More Times Chords & Tabs

Led Zeppelin Chords & Tabs

Version: 4 Type: Tab 0 ratings
1 star 2 stars 3 stars 4 stars 5 stars
comments

How Many More Times Tab

-----------------------------------------------------------------------------
                     Led Zeppelin - How Many More Times
-----------------------------------------------------------------------------
Transcribed by Victor Ochoa
Standard Tuning


  [Intro] - use wah-wah pedal
E|------------------------|------------------------|------------------------|------------------------|
B|9-----------------------|------------------------|------------------------|------------------------|
G|9---7-------------------|(7)---------------------|9----------------------2|------------------------|
D|9---7-------------------|(7)---------------------|9-slide down frets-----2|------------------------|
A|7---5-------------------|(5)---------------------|7----------------------0|------------------------|
E|------------------------|------------------------|------------------------|------------------------|

E|------------------------|------------------------|------------------------|------------------------|
B|9-----------------------|------------------------|------------------------|------------------------|
G|9---7-------------------|(7)---------------------|9----------------------2|------------------------|
D|9---7-------------------|(7)---------------------|9-slide down frets-----2|------------------------|
A|7---5-------------------|(5)---------------------|7----------------------0|------------------------|
E|------------------------|------------------------|------------------------|------------------------|

E|10----------------------|10----------------------|------------------------|------------------------|
B|10----------------------|10----------------------|------------------------|------------------------|
G|11-as fast as possible--|11-as fast as possible--|11----------------------|------------------------|
D|12----------------------|12----------------------|12----------------------|------------------------|
A|------------------------|------------------------|------------------------|------------------------|
E|10----------------------|10----------------------|10----------------------|------------------------|

                                                                     wah-wah off
E|10----------------------|10----------------------|------------------------|------------------------|
B|10----------------------|10----------------------|------------------------|------------------------|
G|11-as fast as possible--|11-as fast as possible--|11----------------------|------------------------|
D|12----------------------|12----------------------|12----------------------|------------------------|
A|------------------------|------------------------|------------------------|------------------------|
E|10----------------------|10----------------------|10----------------------|------------------------|

E|------------------------|------------------------|
B|------------------------|------------------------|
G|------------------------|------------------------|
D|------------------------|------------------------| 
A|------7---5-------5-----|------7-----5---------5-| 
E|0-----------7-----------|0-----------------7-----| 13X

E|------------------------|------------------------|
B|------------------------|------------------------|
G|------------------------|------------------------|
D|------------------------|------------------------| 
A|------7---5-------5-----|5-5---5-----------------|
E|0-----------7-----------|------------5-5---5-----|

E|------------------------|------------------------|
B|------------------------|------------------------|
G|------------------------|------------------------|
D|------------------------|------------------------| 
A|------7---5-------5-----|------7-----5---------5-| 
E|0-----------7-----------|0-----------------7-----| 13X


E|------------------------|------------------------||
B|------------------------|------------7---7---7---||
G|------------------------|------------7---7---7---||
D|------------------------|------7-----7---7---7---||
A|------7---5-------5-----|------5-----5---5---5---||
E|0-----------7-----------|0-----------------------||

E|------------------------|------------------------|------------------------|------------------------|
B|9-----------------------|------------------------|7-----------------------|------------------------|
G|9-----------------------|------------------------|7-----------------------|------------------------|
D|9-----------------------|------------------------|7-----------------------|------------------------|
A|7-----------------------|------------------------|5-----------------------|------------------------|
E|------------------------|------------------------|------------------------|------------------------|
                                 Oh,                                  wanna love some other man too

E|------------------------|--------12----12--------|------------------------|------------------------|
B|17----------------------|----17----17------------|------------------------|------------------------|
G|------------------------|----------------161412--|----------------12141614|12--1412--1412--1412--12|
D|------------------------|----------------------14|14------------14--------|--14----14----14----14--|
A|------------------------|------------------------|------------------------|------------------------|
E|------------------------|------------------------|------------------------|------------------------|
 |                                                                                                   |
E|------------------------|--------12--------------|------------------------|------------------------|
B|17----------------------|----17----17------------|------------------------|------------------------|
G|------------------------|----------------161412--|------------------------|------------------------|
D|------------------------|----------------------14|14--121412--------------|(12)--------------------|
A|------------------------|------------------------|------------------------|------------------------|
E|------------------------|------------------------|------------------------|------------------------|


E|------------------------|------------------------|------------------------|------------------------|
B|-------------15---------|---------15--15---------|------------------------|------------------------|
G|16-------------1416-----|-------15--16--14-------|16------------------1412|14121412-11----------911|
D|------------------------|------------------------|------------------------|------------------------|
A|------------------------|------------------------|------------------------|------------------------|
E|------------------------|------------------------|------------------------|------------------------|
 |                                                                                                   |
E|------------------------|------------------------|------------------------|------------------------|
B|------------------------|------------------------|------------------------|------------------------|
G|------------------------|------------------------|------------------------|------------------------|
D|(12)--------------------|(12)--------------------|141214------------------|------------------------|
A|------------------------|------------------------|------------------------|------------------------|
E|------------------------|------------------------|------------------------|------------------------|


E|------------------------|------------------------|------------------------|------------------------|
B|------------------------|------------------------|------------------------|------------------------|
G|9-----------------2420--|---2420-----2420-----242|0-----2-0-2-------------|------------6-----2-----|
D|------------------------|------------------------|------------------------|------------------------|
A|------------------------|------------------------|------------------------|------------------------|
E|------------------------|------------------------|------------------------|------------------------|
 |                                                                                                   |
E|------------------------|------------------------|------------------------|------------------------|
B|------------------------|------------------------|------------------------|------------------------|
G|------------------------|---2420--------2420-----|2-0-2-0-3--0--3---------|(3)---------------------|
D|------------------------|------------------------|------------------------|------------------------|
A|------------------------|------------------------|------------------------|------------------------|
E|------------------------|------------------------|------------------------|------------------------|


E|------1512--------------|1512----------------1517|------1512--12----------|------------------------|
B|----------12------------|----12------------------|----------15--12--------|--15--------------------|
G|------Play 4------------|Play 4------------------|----------------12--12--|16--14161412------------|
D|------times-------------|times-------------------|------------------14--14|------------1414121412--|
A|------------------------|------------------------|------------------------|----------------------14|
E|------------------------|------------------------|------------------------|------------------------|
 |                                                                                                   |
E|-----------1512---------|1512------------1517----|(17)--------------------|------------------------|
B|---------------12-------|----12------------------|------------------------|------------------------|
G|-----------Play 3-------|Play 3------------------|------------------------|------------------------|
D|-----------times--------|times-------------------|------------------------|------------------------|
A|------------------------|------------------------|------------------------|------------------------|
E|------------------------|------------------------|------------------------|------------------------|


E|------------------------|------------------------|------------------------|------------------------|
B|------------------------|------------------------|------------------------|------------------------|
G|------------------------|------------------------|------------------------|------------------------|
D|------------------------|------------------------|------------------------|--------------14--1421--|
A|11--------12111211--1211|(11)12------------------|(11)12------------------|(11)12----------------14|
E|------------------------|trill-------------------|trill-------------------|trill-------------------|
 |                                                                                                   |
E|------------------------|------------------------|------------------------|------------------------|
B|------------------------|------------------------|------------------------|------------------------|
G|------------------------|------------------------|------------------------|------------------------|
D|--------1211121112111211|12111211----------------|12111211----------------|12111211----------------|
A|------------------------|Play 4 times------------|Play 4 times------------|Play 4 times------------|
E|------------------------|------------------------|------------------------|------------------------|


E|------------------------|------------------------|------------------------|------------15----15----|
B|----------------------17|(17)--------------20--20|20------------------2017|15------1517--1715--1517|
G|------------------------|------------------------|------------------------|------------------------|
D|------------------------|------------------------|------------------------|------------------------|
A|19----------------------|------------------------|------------------------|------------------------|
E|------------------------|------------------------|------------------------|------------------------|
 |                                                                                                   |
E|------------------------|------------------------|------------------------|------------------------|
B|------------------------|------------------------|--------------------1719|--------151715----------|
G|------------------------|------------------------|------------------------|------------------------|
D|------------------------|------------------------|------------------------|------------------------|
A|1212--------------------|------------------------|------------------------|------------------------|
E|------------------------|------------------------|------------------------|------------------------|


E|------15------15------17|18--18--19------19181918|1917151715--------------|--------1512--1512--1512|
B|--1517--171515--1715----|------------------------|------------------------|------------------------|
G|------------------------|------------------------|------------------------|------------------------|
D|------------------------|------------------------|------------------------|------------------------|
A|------------------------|------------------------|------------------------|------------------------|
E|------------------------|------------------------|------------------------|------------------------|
 |                                                                                                   |
E|------------------------|------------------------|------------------------|------------------------|
B|------------------------|------------------------|------------------------|------------------------|
G|------------------------|------------------------|------------------------|------------------------|
D|------------------------|------------------------|------------------------|------------------------|
A|------------------------|------------------------|------------------------|------------------------|
E|------------------------|------------------------|------------------------|------------------------|


E|--1512--1512--1512----15|12--1512151215--12------|------------------------|------------------------|
B|--------------------12--|--12----------15--15----|------------------------|--15--------------------|
G|------------------------|--------------------14--|12--12--121416------1212|16--14-1614--12---------|
D|------------------------|----------------------14|--14--14----------14----|-----------14--1412-1412|
A|------------------------|------------------------|------------------------|------------------------|
E|------------------------|------------------------|------------------------|------------------------|
 |                                                                                                   |
E|------------------------|------------------------|------------------------|------------------------|
B|------1512-1512-1512----|------1512------------12|--1512121517------------|(17)--------------------|
G|------------------------|----------12------------|------------------------|------------------------|
D|------------------------|------Play 4------------|------------------------|------------------------|
A|------------------------|------times-------------|------------------------|------------------------|
E|------------------------|------------------------|------------------------|------------------------|


E|------------------------|------------------------|------------------------|------------------------|
B|------------------------|------------------------|------------------------|------------------------|
G|------------------------|----------------9---11--|131113------------------|(13)------111311----9119|
D|(12)--------------------|------------12----------|------------------------|------------------------|
A|------------------------|------------------------|------------------------|------------------------|
E|------------------------|------------------------|------------------------|------------------------|
 |                                                                                                   |
E|------------------------|------------------------|------------------------|------------------------|
B|------------------------|------------------------|------------------------|------------------------|
G|------------------------|------------------------|----11131113------------|(13)------111311----9119|
D|------------------------|------------------------|------------------------|------------------------|
A|------------------------|------------------------|------------------------|------------------------|
E|------------------------|------------------------|------------------------|------------------------|
 |                                                                                                   |
E|------------------------|------------------------|------0-0-0-0-----0-0-0-|0-----0-0-0-------------|
B|9-----------------------|------------------------|------0-0-0-0-----0-0-0-|0-----0-0-0-------------|
G|9-----------------------|------------------------|------1-1-1-1-----1-1-1-|1-----1-1-1-2---4---6---|
D|9-----9-9-9-9-9-9-9-9-9-|9-9-9-9-9-9-9-9-9-9-9-9-|------2-2-2-2-----2-2-2-|2-----2-2-2-4---6---7---|
A|7-----7-7-7-7-7-7-7-7-7-|7-7-7-7-7-7-7-7-7-7-7-7-|2-----------------------|------------------------|
E|------------------------|------------------------|0-----------------------|------------------------|


E|------------------------|------------------------|------------------------|------------------------|
B|------------------------|------------------------|------------------------|------------------------|
G|7-----------------------|(7)---------9---11--1311|13----------------------|----------1113--11--9119|
D|------------------------|------------------------|------------------------|------------------------|
A|------------------------|------------------------|------------------------|------------------------|
E|------------------------|------------------------|------------------------|------------------------|
 |                                                                                                   |
E|------------------------|------------------------|------------------------|------------------------|
B|------------------------|------------------------|------------------------|------------------------|
G|7-----------------------|-97---------7---9---11--|131112------13----------|----------1113--11--9119|
D|------------------------|------------------------|------------------------|------------------------|
A|------------------------|------------------------|------------------------|------------------------|
E|------------------------|------------------------|------------------------|------------------------|
 |                                                                                                   |
E|------0-0-0-0-----0-0-0-|0-----0-0-0-------------|------0-0-0-0-----0-0-0-|0-----0-0-0-------------|
B|------0-0-0-0-----0-0-0-|0-----0-0-0-------------|------0-0-0-0-----0-0-0-|0-----0-0-0-------------|
G|6-----1-1-1-1-----1-1-1-|1-----1-1-1-2---4---6---|6-----1-1-1-1-----1-1-1-|1-----1-1-1-2---4---6---|
D|7-----2-2-2-2-----2-2-2-|2-----2-2-2-4---6---7---|7-----2-2-2-2-----2-2-2-|2-----2-2-2-4---6---7---|
A|------------------------|------------------------|------------------------|------------------------|
E|------------------------|------------------------|------------------------|------------------------|


E|------------------------|------------------------|------------------------|------------------------|
B|------------------------|------------------------|------------------------|------------------------|
G|131213------------------|(13)------1113--11--9119|7-----------------------|(7)---------------------|
D|------------------------|------------------------|------------------------|------------------------|
A|------------------------|------------------------|------------------------|------------------------|
E|------------------------|------------------------|------------------------|------------------------|
 |                                                                                                   |
E|------------------------|------------------------|------------------------|------------------------|
B|------------------------|------------------------|------------------------|------------------------|
G|14----16----------------|----------141614--131413|11----------------------|11----------13111311----|
D|------------------------|------------------------|------------------------|------------Play 2------|
A|------------------------|------------------------|------------------------|------------times-------|
E|------------------------|------------------------|------------------------|------------------------|
 |                                                                                                   |
E|------------------------|------------------------|121212121212121212121212|121212121212121212121212|
B|9-9-9-9-9-9-9-9-9-9-9-9-|9-9-9-9-9-9-9-9-9-0-0-0-|121212121212121212121212|121212121212121212121212|
G|9-9-9-9-9-9-9-9-9-9-9-9-|9-9-9-9-9-9-9-9-9-0-0-0-|131313131313131313131313|131313131313131313131313|
D|9-9-9-9-9-9-9-9-9-9-9-9-|9-9-9-9-9-9-9-9-9-------|141414141414141414141414|141414141414141414141414|
A|7-7-7-7-7-7-7-7-7-7-7-7-|7-7-7-7-7-7-7-7-7-------|------------------------|------------------------|
E|------------------------|------------------------|121212121212121212121212|121212121212121212121212|


E|------------------------|------------------------||
B|------------------------|------------------------||
G|------------------------|------------------------||
D|------------------------|------------------------||
A|------------------------|------------------------||
E|------------------------|------------------------||
 |                                                 ||
E|------------------------|------------------------||
B|------------------------|------------------------||
G|11----------------------|------------------------||
D|------------------------|------------------------||
A|------------------------|------------------------||
E|------------------------|------------------------||
 |                                                 ||
E|121212121212121212121212|121212121212121212121212||
B|121212121212121212121212|121212121212121212121212||
G|131313131313131313131313|131313131313131313131313||
D|141414141414141414141414|141414141414141414141414||
A|------------------------|------------------------||
E|121212121212121212121212|121212121212121212121212||

                                                    (With violin bow and wah-wah)
E|------------------------|------------------------|0-----------------------|(0)---------------------|
B|------------------------|------------------------|0-----------------------|(0)---------------------|
G|------------------------|------------------------|------------------------|------------------------|
D|------------------------|------------------------|------------------------|------------------------|
A|------------------------|------------------------|------------------------|------------------------|
E|------------------------|------------------------|------------------------|------------0-----------|
 |                                                                                                   |
E|------------------------|------------------------|------------------------|------------------------|
B|------------------------|------------------------|9-----------------------|------------------------|
G|------------------------|------------------------|9-----------------------|------------------------|
D|14----------------------|------------------------|9-----------------------|------------------------|
A|------------------------|------------------------|7-----------------------|------------------------|
E|------------------------|------------------------|------------------------|------------------------|

[ Tab from: http://www.guitartabs.cc/tabs/l/led_zeppelin/how_many_more_times_tab_ver_4.html ]
E|0-----------------------|(0)---------------------|------------------------|------------------------|
B|0-----------------------|(0)---------------------|------------------------|------------------------|
G|------------------------|------------------------|------------------------|------------------------|
D|------------------------|------------------------|------------------------|------------------------|
A|------------------------|------------------------|------------------------|------------------------|
E|------------------------|------------0-----------|(0)---------------------|(0)---------------------|
 |                                                                                                   |
E|------------------------|------------------------|------------------------|------12----------------|
B|------------------------|------------------------|------------------------|------12----------------|
G|------------------------|------------------------|------------------------|------//----------------|
D|------------------------|------------------------|------------------------|------//----------------|
A|------------------------|------------------------|------------------------|------------------------|
E|------------------------|------------------------|------------------------|------------------------|


E|------------------------|------------------------|------------------------|------------------------|
B|9-----------------------|9-----------------------|------------------------|------------------------|
G|------------------------|------------------------|------------------------|------------------------|
D|9---------9-------9-----|9-----------------------|------------------------|------------------------|
A|------------------------|------------------------|------------------------|------------------------|
E|0-----------------------|(0)---------------------|(0)---------------------|(0)---------------------|
 |                                                                                                   |
E|------------------------|------------------------|------------------------|12----------------------|
B|------------------------|------------------------|------------------------|12----------------------|
G|------------------------|------------------------|------------------------|12----------------------|
D|------------------------|------------------------|------------------------|//----------------------|
A|------------------------|------------------------|------------------------|//----------------------|
E|------------------------|------------------------|------------------------|------------------------|


E|------------------------|------------------------|------------------------|------------------------|
B|------------------------|------------------------|------------------------|------------------------|
G|------------------------|------------------------|------------------------|------------------------|
D|9-----------12----------|(12)--------------------|9-----------2-----------|------------------------|
A|------------------------|------------------------|------------------------|------------------------|
E|7-----------10----------|(10)--------------------|7-----------0-----------|------------------------|
 |                                                                                                   |
E|------------------------|------------------------|------------------------|------------------------|
B|------------------------|------------------------|------------------------|------------------------|
G|------------------------|------------------------|------------------------|------------------------|
D|9-----------12----------|(12)--------------------|9-----------2-----------|------------------------|
A|------------------------|------------------------|------------------------|------------------------|
E|7-----------10----------|(10)--------------------|7-----------0-----------|------------------------|


E|------------------------|------------------------|------------------------|------------------------|
B|------------------------|------------------------|------------------------|------------------------|
G|------------------------|------------------------|------------------------|------------------------|
D|9-----------12----------|(12)--------------------|------------------------|------------------------|
A|------------------------|------------------------|9-----------7-----------|------------------------|
E|7-----------10----------|(10)--------------------|7-----------0-----------|------------------------|
 |                                                                                                   |
E|------------------------|------------------------|------------------------|------------------------|
B|------------------------|------------------------|------------------------|------------------------|
G|------------------------|------------------------|------------------------|------------------------|
D|9-----------12----------|(12)--------------------|9-----------2-----------|------------------------|
A|------------------------|------------------------|------------------------|------------------------|
E|7-----------10----------|(10)--------------------|7-----------0-----------|------------------------|


E|------------------------|------------------------|------------------------|------------------------|
B|------------------------|------------------------|------------------------|------------------------|
G|------------------------|------------------------|------------------------|------------------------|
D|9-----------12----------|(12)--------------------|9-----------2-----------|------------------------|
A|------------------------|------------------------|------------------------|------------------------|
E|7-----------10----------|(10)--------------------|7-----------0-----------|------------------------|
 |                                                                                                   |
E|------------------------|------------------------|------------------------|------------------------|
B|------------------------|------------------------|------------------------|------------------------|
G|------------------------|------------------------|------------------------|------------------------|
D|9-----------12----------|(12)--------------------|9-----------2-----------|------------------------|
A|------------------------|------------------------|------------------------|------------------------|
E|7-----------10----------|(10)--------------------|7-----------0-----------|------------------------|


E|------------------------|------------------------|------------------------|------------------------|
B|------------------------|------------------------|------------------------|------------------------|
G|------------------------|------------------------|------------------------|------------------------|
D|9-----------12----------|(12)--------------------|------------------------|------------------------|
A|------------------------|------------------------|9-----------7-----------|------------------------|
E|7-----------10----------|(10)--------------------|7-----------0-----------|------------------------|
 |                          //                                                                       |
E|------------------------|------------------------|------------------------|------------------------|
B|------------------------|------------------------|------------------------|------------------------|
G|------------------------|------------------------|------------------------|------------------------|
D|9-----------12----------|(12)--------------------|9-----------2-----------|------------------------|
A|------------------------|------------------------|------------------------|------------------------|
E|7-----------10----------|(10)--------------------|7-----------0-----------|------------------------|
                            //


E|------------------------|------------------------|9---------9---9---9---9-|----------------9---7---|
B|----------------------9-|8---7---9----9--9--8--9-|10--------10--10--10--10|------------------------|
G|------------------------|------------------------|9---------9---9---9---9-|----------------9---7---|
D|----------------------9-|7---7---9----9--9--8--9-|11--------11--11--11--11|------------------------|
A|--------------7---------|------------------------|0---------0---0---0---0-|------------------------|
E|--1212------------------|------------------------|------------------------|------------------------|
 |  ////                                                                                             |
E|------------------------|------------------------|------------------------|------------------------|
B|------------------------|------------------------|------------------------|------------------------|
G|------------------------|------------------------|------------------------|------------------------|
D|------------------------|------------------------|-----------12-----------|(12)--------------------|
A|------------------------|------------------------|------------------------|------------------------|
E|------------------------|------------------------|-----------10-----------|(10)--------------------|
                                                               //


E|------------------------|------------------------|------------------------|------------------------|
B|------------9---7---9---|9---8---9---8---9---9---|------------------------|------------------------|
G|------------------------|------------------------|11----------------------|11----------------------|
D|------------9---7---9---|9---8---9---8---9---9---|12----------------------|12----------------------|
A|------------------------|------------------------|------------------------|------------------------|
E|10----12----------------|------------------------|10----------------------|10----------------------|
 |//    //                                          //                       //                      |
E|------------------------|------------------------|------------------------|------------------------|
B|------------------------|------------------------|------------------------|------------------------|
G|------------------------|------------------------|------------------------|------------------------|
D|12----14----------------|14----------------------|12----------------------|12----------------------|
A|------------------------|------------------------|------------------------|------------------------|
E|10----12----------------|12----------------------|10----------------------|10----------------------|
                           //                       //                       //

E|------------------------|------------------------|------------------------|------------------------|
B|------------------------|----------14--12--12----|------------------------|------------------------|
G|------------------------|------------------------|------------------------|------------------------|
D|12----14----14----------|14--------14--12--12----|------------------------|------------------------|
A|------------------------|------------------------|------------------------|------------------------|
E|10----12----12----------|12----------------------|10----------------------|10----------------------|
 |//    //    //                                    //                       //                      |
E|------------------------|------------------------|------------------------|------------------------|
B|------------------------|------------------------|------------------------|------------------------|
G|------------------------|------------------------|------------------------|------------------------|
D|12----14----14----------|12----------------------|12----------------------|12----------------------|
A|------------------------|------------------------|------------------------|------------------------|
E|10----12----12----------|10----------------------|10----------------------|10----------------------|
  //                       //                       //                       //

E|------------------------|------------------------|------------------------|------------------------|
B|------------------------|------------------------|------------------------|------------------------|
G|------------------------|------------------------|------------------------|------------------------|
D|14----------------------|14----------------------|------------------------|12----------------------|
A|------------------------|------------------------|------------------------|------------------------|
E|12----------------------|12----------14--16--14--|1214121010----10--------|10----------------22----|
 |//                       //          //  //  //           //    //         //                //    |
E|------------------------|------------------------|------------------------|------------------------|
B|------------------------|------------------------|------------------------|------------------------|
G|------------------------|------------------------|------------------------|------------------------|
D|12----------------------|12----------------------|12----------------------|12----------------------|
A|------------------------|------------------------|------------------------|------------------------|
E|10----------------------|10----------------------|10----------------------|10----------------------|
  //                       //                       //                       //

E|------------------------|------------------------|------------------------|------------------------|
B|------------------------|------------------------|------------------------|------------------------|
G|------------------------|------------------------|------------------------|------------------------|
D|------------14----------|------------------------|------12----12----------|12----------------------|
A|------------------------|------------------------|------------------------|------------------------|
E|0----12-----12----------|12----14----16----121412|1210--10----10----------|10------------22----120-|
 |//          //           //    //    //           ////  //    //           //                      |
E|------------------------|------------------------|------------------------|------------------------|
B|------------------------|------------------------|------------------------|------------------------|
G|------------------------|------------------------|------------------------|------------------------|
D|------------------------|------------------------|------------------------|12----------------------|
A|------------------------|------------------------|------------------------|------------------------|
E|7-----------------------|12----14----16----121412|1210--------------------|10----------------------|


E|------------------------|------------------------|------------------------|------------------------||
B|------------------------|------------------------|------------------------|------------------------||
G|------------------------|------------------------|------------------------|------------------------||
D|------------------------|------------------------|------------------------|12----------------------||
A|------------------------|------------------------|------------------------|------------------------||
E|------------------------|12----14----16----121412|1210--------------------|10----------12----0-----||
 |                         //    //    //           ////  //    //           //                      ||
E|------------------------|------------------------|------------------------|------------------------||
B|------------------------|------------------------|------------------------|------------------------||
G|------------------------|------------------------|------------------------|------------------------||
D|------------------------|------------------------|------------------------|12----------------------||
A|------------------------|------------------------|------------------------|------------------------||
E|10----12----------------|12----14----16----121412|1210--------------------|10----------------------||


  4/4 time  "Oh Rosie" part
E|----------------|----------------|
B|------------8---|------------8---|
G|------------7---|------------7---| Play 7
D|------------6---|------------6---| times
A|------------7---|------------7---|
E|----------------|----------------|

E|----------------|----------------|
B|------------8---|------------8---|
G|------------7---|------------7---| Play 6
D|----57-7----6---|----57-7----6---| times
A|0-00--------7---|0-00--------7---|
E|0-0035-57-0-----|0-0035-57-0-----|

E|----------------|----------------|----------------|--------3-------||
B|----------------|----------------|----------------|--------3-------||
G|----------------|----------------|----------------|--------5-------||
D|9-9-9-9-9-9-9-9-|9---77-97-7-7-7-|----7---7-7-7-7-|7-7-7---5-------||
A|9-9-9-9-9-9-9-9-|9-79-----9-9-9--|77--7---7-7-7-7-|7-7-7---5---5---||
E|7-7-7-7-7-7-7-7-|7---------------|55--5---5-5-5-5-|5-5-5-0-3---3---||
                                                             Cuz I

  12/8 time
E|------------------------|------------------------|------------------------|------------------------|
B|------------------------|------------------------|------------------------|------------------------|
G|------------------------|------------------------|------------------------|------------------------|
D|------------------------|------------------------|------------------------|------------------------|
A|2-----------------------|------------------------|------------------------|------------------------|
E|0-----------------------|------------------------|------------------------|------------------------|
  got you         in       the         sights                 of       my

E|------------------------|------------------------|------------------------|------------------------|
B|------------------------|------------------------|------------------------|------------------------|
G|------------------------|------------------------|------------------------|------------------------|
D|------------------------|------------------------|------------------------|------------------------|
A|------------------------|------------------------|------------------------|------------------------|
E|------------------------|------------------------|------------------------|------------------------|
  gun_____

E|------------------------||
B|------------------------||
G|------------------------||
D|------------------------||
A|------------------------||
E|------------------------||

E|------------------------|------------------------|
B|------------------------|------------------------|
G|------------------------|------------------------| Play 5
D|------------------------|------------------------| times
A|------7---5-------5-----|------7-----5---------5-| 
E|0-----------7-----------|0-----------------7-----|

E|------------------------|------------------------|
B|------------------------|------------------------|
G|------------------------|7-7---7-----6-6---6-----|
D|------------------------|7-7---7-----7-7---7-----| 
A|------7---5-------5-----|5-5---5-----7-7---7-----| 
E|0-----------7-----------|------------5-5---5-----|

E|------------------------|------------------------|
B|------------------------|------------------------|
G|------------------------|------------------------| Play 3
D|------------------------|------------------------| times
A|------7---5-------5-----|------7-----5---------5-| 
E|0-----------7-----------|0-----------------7-----|

E|------------------------|------------------------|
B|------------------------|------------------------|
G|------------------------|7-7---7-----6-6---6-----|
D|------------------------|7-7---7-----7-7---7-----| 
A|------7---5-------5-----|5-5---5-----7-7---7-----| 
E|0-----------7-----------|------------5-5---5-----|

E|------------------------|------------------------|
B|------------------------|------------------------|
G|------------------------|------------------------| Play 3
D|------------------------|------------------------| times
A|------7---5-------5-----|------7-----5---------5-| 
E|0-----------7-----------|0-----------------7-----|

E|------------------------|------------------------|
B|------------------------|------------------------|
G|------------------------|7-7---7-----6-6---6-----|
D|------------------------|7-7---7-----7-7---7-----| 
A|------7---5-------5-----|5-5---5-----7-7---7-----| 
E|0-----------7-----------|------------5-5---5-----|

E|------------------------|------------------------|
B|------------------------|------------------------|
G|------------------------|------------------------|
D|------------------------|------------------------|
A|------7---5-------5-----|------7-----5---------5-|
E|0-----------7-----------|0-----------------7-----|

E|------------------------|------------------------|
B|------------------------|------------------------|
G|------------------------|7-7---7-----6-6---6-----|
D|------------------------|7-7---7-----7-7---7-----|
A|------7---5-------5-----|5-5---5-----7-7---7-----|
E|0-----------7-----------|------------5-5---5-----|

E|------------------------|------------------------|
B|------------------------|------------------------|
G|------------------------|------------------------|
D|------------------------|------------------------|
A|------7---5-------5-----|------7-----5---------5-|
E|0-----------7-----------|0-----------------7-----|

E|------------------------|------------------------|
B|------------------------|------------------------|
G|------------------------|7-7---7-----6-6---6-----|
D|------------------------|7-7---7-----7-7---7-----|
A|------7---5-------5-----|5-5---5-----7-7---7-----|
E|0-----------7-----------|------------5-5---5-----|

E|0-----------------------|------------------------|0-----------------------|------------------------|
B|0-----------------------|------------------------|0-----------------------|------------------------|
G|1-----------------------|7-7---7-----6-6---6-----|1-----------------------|7-7---7-----6-6---6-----|
D|2-----------------------|7-7---7-----7-7---7-----|2-----------------------|7-7---7-----7-7---7-----|
A|2-----------------------|5-5---5-----7-7---7-----|2-----------------------|5-5---5-----7-7---7-----|
E|0-----------------------|------------5-5---5-----|0-----------------------|------------5-5---5-----|

                                                                                              Free time
E|0-----------------------|------------------------|0-----------------------|------------------------|
B|0-----------------------|------------------------|0-----------------------|------------------8-----|
G|1-----------------------|7-7---7-----6-6---6-----|1-----------------------|------------------7-----|
D|2-----------------------|7-7---7-----7-7---7-----|2-----------------------|------------------6-----|
A|2-----------------------|5-5---5-----7-7---7-----|2-----------------------|------------------7-----|
E|0-----------------------|------------5-5---5-----|0-----------------------|------------------------|
                                                                                               //

E|------------------------|------------------------|------------------------|------------------------|
B|------------------------|------------------------|------------------------|------------------------|
G|------------------------|------------------------|------------------------|------------------------|
D|2-----------------------|2-----------------------|2-----------------------|2-----------------------|
A|2-----------------------|2-----------------------|2-----------------------|2-----------------------|
E|0-----------------------|0-----------------------|0-----------------------|0-----------------------|
 |//                       //                       //                       //                      |
E|------------------------|------------------------|------------------------|------------------------|
B|8-----------------------|8-----------------------|8-----------------------|8-----------8-----8-----|
G|7-----------------------|7-----------------------|7-----------------------|7-----------7-----7-----|
D|6-----------------------|6-----------------------|6-----------------------|6-----------6-----6-----|
A|7-----------------------|7-----------------------|7-----------------------|7-----------7-----7-----|
E|------------------------|------------------------|------------------------|------------------------|
  //                       //                       //                       //

E|------------------------||
B|------------------------||
G|------------------------||
D|2-----------------------||
A|2-----------------------||
E|0-----------------------||
 |                        ||
E|------------------------||
B|(8)---------------------||
G|(7)---------------------||
D|(6)---------------12----||
A|(7)---------------------||
E|------------------13----||
Comments