Led Zeppelin - How Many More Times Chords & Tabs

 

How Many More Times Chords & Tabs

Led Zeppelin Chords & Tabs

Version: 3 Type: Tab 0 ratings
1 star 2 stars 3 stars 4 stars 5 stars
comments

How Many More Times Tab

   
Song: How Many More Times
Part: Solo
Artist: Led Zeppelin
From: Steve Johnson (hockey_guitarist@hotmail.com)


A great solo with a neat part at the end, almost like Guess Who's
American Woman solo.
I also included the section after the violin bow part.
Anyway I'll get on with it:

Lots of distortion and very heavy reverb.

s = slide
b = bend
h = hammer-on
p = pull off
t = tremolo pick (very fast)
r = release bend

e-12-------------12---------------------------------------------|
b-15b17--15b17---15b17---15b17t--12-----------------------------|
g-------------------------------------14b16r 14p12-14p12--------|
d---------------------------------------------------------14----|
a---------------------------------------------------------------|
e---------------------------------------------------------------|

----------------------------------------------------------|
--15b17-hold-------------------------15------15-----------|
---------------14p12-12h14-x2--14b16----14b15---14b16--12-|
----------------------------------------------------------|
----------------------------------------------------------|
----------------------------------------------------------|

----------------------------15p12---------------15b17--------|
---------------------------------12--------------------------|
----4p2p0--4p2p0--2-0-2-------play this fast 4x--------14p12-|
-------------------------------------------------------------|
-------------------------------------------------------------|
-0-----------------------------------------------------------|

-------------------------------------------------------------------|
-------------------------------------------------------------------|
-12h14p12----------------------------------------------------------|
-----------12h14p12------------------------------------------------|
---------------------11h12p11h12---------------------------19/0----|
--------------------do this many times ending on the 12------------|
[ Tab from: http://www.guitartabs.cc/tabs/l/led_zeppelin/how_many_more_times_tab_ver_3.html ]
---------------------------------------15-------17b18b19r18b19r17p15-|
--15b17--17-17-17b20-------15h17--15h17---15h17----------------------|
---------------------------------------------------------------------|
---------------------------------------------------------------------|
---------------------------------------------------------------------|
---------------------------------------------------------------------|

--15p12-15p12--15p12---------------------------------------------|
-----repeat this 2x----15p12--------15p12---15p12---15b17--------|
-----------------------------12h14-------12------12--------------|
-----------------------------------------------------------12----|
-----------------------------------------------------------------|
-----------------------------------------------------------------|

---------------------------------------------------------------|
------------------------------------17-19-17-19b21r19--17--15--|
---------------------------------------------------------------|
--12---14-16-14-16s18s16---14--12------------------------------|
--------------play this 3x-------------------------------------|
---------------------------------------------------------------|

---
--9 play this many times speeding up and slowing down
--9
--9
--7
--0

OH ROSIE

--------------------------------------------------------------|
--8-this is played after every-----------------------8--------|
--7 lyric phrase. after you go to -------------------7--------|
--6--------------------------------------------------6--------|
--7---------------this is played over and over-------7--------|
--0------------------------------0-0-0-3h5--5/7--0------------|

I don't have the lick that follows but it's in E so fiddle with it.
Hammer an E chord 12x and the a D 11x before an final E and back to
the main riff.

Well that's all, I hope it makes sense, I've spent all day figuring
it out and plus I'm only 14 and haven't got a good ear yet.
Have fun with it and improvise on the phrasings.

Steve Johnson
Comments