Led Zeppelin - Hey Hey What Can I Do Chords & Tabs

 

Hey Hey What Can I Do Chords & Tabs

Led Zeppelin Chords & Tabs

Version: 3 Type: Tab 0 ratings
1 star 2 stars 3 stars 4 stars 5 stars
comments

Hey Hey What Can I Do Tab

   
                              HEY HEY WHAT CAN I DO
                           As recorded by Led Zeppelin
                 (From the 2000 Album LED ZEPPELIN (BOXED SET))

Words and Music by Jimmy Page, Robert Plant, John Paul Jones & John Bonham
Transcribed by www.mikesguitarsite.co.uk

Gtr I (Eb Ab Db Gb Bb Eb) - 'Jimmy Page - 6 string acoustic'
Gtr II (Eb Ab Db Gb Bb Eb) - 'Mandolin arr. for gtr.'

 Intro
  Q=76
 4/4
  Gtr I
|---------|---------------------------|-------------------------------|
|---------|-2---------------------2---|-2------------------------2----|
|---------|-2-2-2-------------2-2-2-2-|-2-2-2--------------2--2--2--2-|
|-2-2-2-4-|-2-2-2-2-2-2-2-2-2-2-2-2-4-|-2-2-2-2-2-2-2-2-2--2--2--2--4-|
|-3-4-0---|---0-0-0-0-0-0-0-0-3-4-----|---0-0-0-0-0-0-0-0--3--4-------|
|---------|---------------------------|-------------------------------|
|
| Gtr II
|---------|---------------------------|----------------------14-12-14-|
|---------|---------------------------|-------------------13----------|
|---------|---------------------------|-------------------------------|
|---------|---------------------------|-------------------------------|
|---------|---------------------------|-------------------------------|
|---------|---------------------------|-------------------------------|


|--------------------------------------|
|--2------------------------------2----|
|--2-2-2--------------------2--2--2--2-|
|--2-2-2--2--2--2--2--2--2--2--2--2--4-|
|----0-0--0--0--0--0--0--0--3--4-------|
|--------------------------------------|
|
|-17-----------------------------12-14-|
|-14-----------------------13-14-------|
|--------------------------------------|
|--------------------------------------|
|--------12-12-12-12-12-12-------------|
|--------------------------------------|


                               3/4
|---------------3---3------2--|--(2)----||
|--2---------0--0---0---0--3--|--(3)----||
|--2---------0--0---0---0--2--|--(2)----||
|--2-2-2-2-2-0--0---0---0--0--|--(0)----||
|----0-0-0-0----2---2---------|---------||
|---------------3---3---------|---------||
|
|-17-----------15--15-----14--|-(14)----||
|-14-----------12--12--10-10--|-(10)----||
|-----------------------------|---------||
|-----------------------------|---------||
|-----------------------------|---------||
|-----------------------------|---------||


   Verses
   4/4
||-------0-0-0--3-3-3--2-2-0-|--2-0--2--0--2---2--2-2---2--2--2-------------|
||o--2---0-0-0--0-0-0--3-3-3-|--3-3--3--3--3---3--3-3---3--3--3-------------|
||---2---1-1-1--0-0-0--2-2-2-|--2-2--2--0--2---2--2-2---2--2--2--2--2----2--|
||---2---2-2-2--0-0-0--0-0-0-|--0-0--0--0--0---0--0-0---0--0--0--2--2--2-2--|
||o--0---2-2-2--2-2-2--------|-----------------------------------0--3--4----|
||-------0-0-0--3-3-3--------|----------------------------------------------|
|
||--12--12-----15-----14-----|-14---14-14-10-----10-------10-10-------------|
||o-10---9-----12-----10-----|-10---10-10-10--------------------14-12-10----|
||---------------------------|---------------/11------/11-------------------|
||---------------------------|----------------------------------------------|
||o--------------------------|----------------------------------------------|
||---------------------------|----------------------------------------------|


|----------0-0-0--3-3--3--2-2-0-|--2-0-2-0--2--2--2-------------------|
|--2-2--2--0-0-0--0-0--0--3-3-3-|--3-3-3-3--3--3--3-------------------|
|--2-2--2--1-1-1--0-0--0--2-2-2-|--2-0-2-2--2--2--2-------------------|
|--2-2--2--2-2-2--0-0--0--0-0-0-|--0-0-0-0--0--0--0------2-4-2--------|
|--0-0--0--2-2-2--2-2--2--------|--------------------3-4--------3b3.5-|
|----------0-0-0--3-3--3--------|-------------------------------------|
|
|-12---12-12-----15---14-14-----|-14-------10-10-10----9-------12-----|
|-10---10-10-----12---10-10-----|-10---------------------------10-----|
|-------------------------------|----------11-11-11----9--------------|
|-------------------------------|-------------------------------------|
|-------------------------------|-------------------------------------|
|-------------------------------|-------------------------------------|


|------0----0--3-x-----2-2-0-|---2--0-2-0--2---2--2-2------2--2------------|
|------0----0--3-x--0--2-3-3-|---3--3-3-3--3---3--3-3------3--3------------|
|--2---1----1--0-x--0--3-2-0-|---2--2-2-2--2---2--2-2------2--2--2--2----2-|
|--2---2----2--0-x--0--0-0-0-|---0--0-0-0--0---0--0-0------0--0--2--2--2-2-|
|--0---2----2--2-x-----------|-----------------------------------0--3--4---|
|------0----0--3-x-----------|---------------------------------------------|
|
|-12--12-12---15---14-14-----|-(14)-------10-----10-------10-10------------|
|-10--10-10---12---10-10-----|-(10)-------10--------------------14-12-10---|
|----------------------------|---------------/11------/11------------------|
|----------------------------|---------------------------------------------|
|----------------------------|---------------------------------------------|
|----------------------------|---------------------------------------------|


 3/4                       4/4
|-----0--0--0--0--0-2-2-0-|--2----||
|--2--0--0--0--0--0-2-2-0-|--3----||
|--2--------1--1--1-2-2---|--2----||
|--2--------2--2--2-4-4---|--0----||
|--0----------------------|--0----||
|-------------------------|-------||
|
|-12-12-12-12-12-12-9-9-9-|-10----||
|-10-10-10-10-10-10-7-7-7-|--7----||
|-------------------------|-------||
|-------------------------|-------||
|-------------------------|-------||
|-------------------------|-------||


 Chorus
|-----------3--(3)--2--2--0--2--2--0-|
|--2---2-x--3--(3)--3--3--3--3--3--3-|
|--2---2-x--0--(0)--2--2--0--2--2--0-|
|--2---2-x--0--(0)--0--0--0--0--0--0-|
|--0---0-x--2--(2)-------------------|
|-----------3--(3)-------------------|
|
|-17--17-x-15-(15)-14-14-12-14-14-12-|
|-14--14-x-12-(12)-10-10-10-10-10-10-|
|--------x---------------------------|
|------------------------------------|
|------------------------------------|
|------------------------------------|


|--2--0--2--0--2--2--0--2-----2--0-------------|
|--3--3--3--3--3--3--3--3-----3--3-----------2-|
|--2--2--2--2--2--2--0--2-----2--2-----------2-|
|--0--0--0--0--0--0--0--0-----0--0--2--------2-|
|-----------------------------------0--3--4----|
|----------------------------------------------|
|
|-14-12-14-12-14-14-12-14-12-14-12-12-12-12-12-|
|-10-10-10-10-10-10-10-10-10-10-10-10-10-10-10-|
|----------------------------------------------|
|----------------------------------------------|
|----------------------------------------------|
|----------------------------------------------|


|-----------3--(3)--2--2--0--2--2--0-|
|--2---2-x--3--(3)--3--3--3--3--3--3-|
|--2---2-x--0--(0)--2--2--0--2--2--0-|
|--2---2-x--0--(0)--0--0--0--0--0--0-|
|--0---0-x--2--(2)-------------------|
|-----------3--(3)-------------------|
|
|-17--17-x-15-(15)-14-14-12-14-14-12-|
|-14--14-x-12-(12)-10-10-10-10-10-10-|
|--------x---------------------------|
|------------------------------------|
|------------------------------------|
|------------------------------------|


|--2--2--2--0--2--2--0--2-----2--2-------------|
|--3--3--3--3--3--3--3--3-----3--3-------------|
|--2--2--2--2--2--2--0--2-----2--2--2--------2-|
|--0--0--0--0--0--0--0--0-----0--0--2--2--2--2-|
|-----------------------------------0--3--4----|
|----------------------------------------------|
|
|-14-12-14-12-14-14-12-14-12-14-12-12-12-12-12-|
|-10-10-10-10-10-10-10-10-10-10-10-10-10-10-10-|
|----------------------------------------------|
|----------------------------------------------|
|----------------------------------------------|
|----------------------------------------------|

[ Tab from: http://www.guitartabs.cc/tabs/l/led_zeppelin/hey_hey_what_can_i_do_tab_ver_3.html ]
|-----------3--(3)--2--2--0--2--2--0-|
|--2---2-x--3--(3)--3--3--3--3--3--3-|
|--2---2-x--0--(0)--2--2--0--2--2--0-|
|--2---2-x--0--(0)--0--0--0--0--0--0-|
|--0---0-x--2--(2)-------------------|
|-----------3--(3)-------------------|
|
|-17--17-x-15-(15)-14-14-12-14-14-12-|
|-14--14-x-12-(12)-10-10-10-10-10-10-|
|--------x---------------------------|
|------------------------------------|
|------------------------------------|
|------------------------------------|


|--2-----2--0--2--2--0--2-----2--0-------------|
|--3-----3--3--3--3--3--3-----3--3-----------2-|
|--2-----2--2--2--2--0--2-----2--2-----------2-|
|--0-----0--0--0--0--0--0-----0--0--2--------2-|
|-----------------------------------0--3--4----|
|----------------------------------------------|
|
|-14-12-14-12-14-14-12-14-12-14-12-12-12-12-12-|
|-10-10-10-10-10-10-10-10-10-10-10-10-10-10-10-|
|----------------------------------------------|
|----------------------------------------------|
|----------------------------------------------|
|----------------------------------------------|


|-----------3--(3)--2--2--0--2--2--0-|
|--2---2-x--3--(3)--3--3--3--3--3--3-|
|--2---2-x--0--(0)--2--2--0--2--2--0-|
|--2---2-x--0--(0)--0--0--0--0--0--0-|
|--0---0-x--2--(2)-------------------|
|-----------3--(3)-------------------|
|
|-17--17-x-15-(15)-14-14-12-14-14-12-|
|-14--14-x-12-(12)-10-10-10-10-10-10-|
|--------x---------------------------|
|------------------------------------|
|------------------------------------|
|------------------------------------|


                                                3x
|--2-----2--0--2--2--0--2-----2--0--------------||
|--3-----3--3--3--3--3--3-----3--3-----------2-o||
|--2-----2--2--2--2--0--2-----2--2-----------2--||
|--0-----0--0--0--0--0--0-----0--0--2--------2--||
|-----------------------------------0--3--4----o||
|-----------------------------------------------||
|
|                                               3x
|-14-12-14-12-14-14-12-14-12-14-12-12-12-12-12--||
|-10-10-10-10-10-10-10-10-10-10-10-10-10-10-10-o||
|-----------------------------------------------||
|-----------------------------------------------||
|----------------------------------------------o||
|-----------------------------------------------||


 Outro
|-----------3--(3)--2--2--0--2--2--0-|
|--2---2-x--3--(3)--3--3--3--3--3--3-|
|--2---2-x--0--(0)--2--2--0--2--2--0-|
|--2---2-x--0--(0)--0--0--0--0--0--0-|
|--0---0-x--2--(2)-------------------|
|-----------3--(3)-------------------|
|
|-17--17-x-15-(15)-14-14-12-14-14-12-|
|-14--14-x-12-(12)-10-10-10-10-10-10-|
|--------x---------------------------|
|------------------------------------|
|------------------------------------|
|------------------------------------|


|--2-----2--0--2--2--0--2-----2--0-------------||
|--3-----3--3--3--3--3--3-----3--3-----------2-||
|--2-----2--2--2--2--0--2-----2--2-----------2-||
|--0-----0--0--0--0--0--0-----0--0--2--------2-||
|-----------------------------------0--3--4----||
|----------------------------------------------||
|
|-14-12-14-12-14-14-12-14-12-14-12-12-12-12-12-||
|-10-10-10-10-10-10-10-10-10-10-10-10-10-10-10-||
|----------------------------------------------||
|----------------------------------------------||
|----------------------------------------------||
|----------------------------------------------||


||------------3--(3)--2--2--0--2-----2-2-|
||o--2---2-x--3--(3)--3--3--3--3-----3-3-|
||---2---2-x--0--(0)--2--2--0--2-----2-2-|
||---2---2-x--0--(0)--0--0--0--0-----0-0-|
||o--0---0-x--2--(2)---------------------|
||------------3--(3)---------------------|
|
||--17--17-x-15-(15)-14-14-12-14-14-12---|
||o-14--14-x-12-(12)-10-10-10-10-10-10---|
||---------x-----------------------------|
||---------------------------------------|
||o--------------------------------------|
||---------------------------------------|


|--2--0-0--0--2-2--2-0-0--0--2-2--2--0-0----------------------|
|--3--3-3--3--3-3--3-3-3--3--3-3--3--3-3----------------------|
|--2--0-0--0--2-2--2-0-0--0--2-2--2--0-0----------2--2--------|
|--0----------0-0--0---------0-0--0---------------2--2--2--2--|
|-----3-3--3---------3-3--3----------3-3-3s=4--0--0--0--3--4--|
|-------------------------------------------------------------|
|
|-14-12---14-12---14-----14-12---14-12-----14-12-12-12-12-12--|
|-10-10---10-10---10-----10-10---10-10-----10-10-10-10-10-10--|
|-------------------------------------------------------------|
|-------------------------------------------------------------|
|-------------------------------------------------------------|
|-------------------------------------------------------------|


|-----------3--(3)--2--2--0--2-----2-2-|
|--2---2-x--3--(3)--3--3--3--3-----3-3-|
|--2---2-x--0--(0)--2--2--0--2-----2-2-|
|--2---2-x--0--(0)--0--0--0--0-----0-0-|
|--0---0-x--2--(2)---------------------|
|-----------3--(3)---------------------|
|
|-17--17-x-15-(15)-14-14-12-14-14-12---|
|-14--14-x-12-(12)-10-10-10-10-10-10---|
|--------x-----------------------------|
|--------------------------------------|
|--------------------------------------|
|--------------------------------------|


 1.,2.,3.,4.
|--2--0-0--0--2-2--2-0-0--0--2-2--2--0-0----------------------||
|--3--3-3--3--3-3--3-3-3--3--3-3--3--3-3---------------------o||
|--2--0-0--0--2-2--2-0-0--0--2-2--2--0-0----------2--2--------||
|--0----------0-0--0---------0-0--0---------------2--2--2--2--||
|-----3-3--3---------3-3--3----------3-3-3s=4--0--0--0--3--4-o||
|-------------------------------------------------------------||
|
|-14-12---14-12---14-----14-12---14-12-----14-12-12-12-12-12--||
|-10-10---10-10---10-----10-10---10-10-----10-10-10-10-10-10-o||
|-------------------------------------------------------------||
|-------------------------------------------------------------||
|------------------------------------------------------------o||
|-------------------------------------------------------------||


  5.
|--2--0--2-----5-5----5-----7----7----7-----9----------|
|--3--3--3-----7-7----7-----9----9----9----10----------|
|--2--2--2-----7-7----7-----9----9----9-----9----------|
|--0--0--0---------------------------------------------|
|------------------------------------------------------|
|------------------------------------------------------|
|
|-14-12-14-12-14---14---12-14-12---14---12-12-12-12-12-|
|-10-10-10-10-10---10---10-10-10---10---10-10-10-10-10-|
|------------------------------------------------------|
|------------------------------------------------------|
|------------------------------------------------------|
|------------------------------------------------------|


 5/8
|-0-0-0-0-2-0-2-|-4-----*|
|-1-1-1-1-1-1-1-|-5-----*|
|-2-2-2-2-2-2-2-|-4-----*|
|---------------|-------*|
|---------------|-------*|
|---------------|-------*|
|
|---------------|-------*|
|---------------|-------*|
|---------------|-------*|
|---------------|-------*|
|---------------|-------*|
|---------------|-------*|


Tablature Legend
----------------
 h   - hammer-on
 p   - pull-off
 b   - bend
 pb  - pre-bend
 r   - bend release (if no number after the r, then release immediately)
 /\  - slide into or out of (from/to "nowhere")
 s   - legato slide
 S   - shift slide
  - natural harmonic
[n]  - artificial harmonic
n(n) - tapped harmonic
 ~   - vibrato
 tr  - trill
 T   - tap
 TP  - trem. picking
 PM  - palm muting
\n/  - tremolo bar dip; n = amount to dip
 \n  - tremolo bar down
 n/  - tremolo bar up
/n\  - tremolo bar inverted dip
 =   - hold bend; also acts as connecting device for hammers/pulls
 <>  - volume swell (louder/softer)
 x   - on rhythm slash represents muted slash
 o   - on rhythm slash represents single note slash

Misc Legend
-----------
 |  - bar
||  - double bar
||o - repeat start
o|| - repeat end
*|  - double bar (ending)
 :  - bar (freetime)
 $  - Segno
 &  - Coda
Tempo markers -  = BPM(8/16=s8/s16), where s8 = swing 8ths, s16 = swing 16ths


***************************************************************************************
* Generated using Power Tab Editor by Brad Larsen - http://powertab.guitarnetwork.org *
***************************************************************************************
Comments