Led Zeppelin - Hey Hey What Can I Do Chords & Tabs

 

Hey Hey What Can I Do Chords & Tabs

Led Zeppelin Chords & Tabs

Version: 2 Type: Tab 0 ratings
1 star 2 stars 3 stars 4 stars 5 stars
comments

Hey Hey What Can I Do Tab

-----------------------------------------------------------------------------
                 Led Zeppelin - Hey Hey What Can I Do
-----------------------------------------------------------------------------

Transcribed by Victor Ochoa

Standard Tuning

E|----------------|----------------|----------------|----------------|
B|----------------|2---------------|2-----------2-22|2-------------22|
G|----------------|2-----------2-22|2-----------2-22|2-----------2-22|
D|------------2-24|2-222-222-222-24|2-222-222-222-24|2-222-222-222-24|
A|------------340-|--000-000-00340-|--000-000-00340-|0-000-000-00340-|
E|----------------|----------------|----------------|----------------|

  3/4 time     4/4 time
E|-------3-3-0|2---------------||
B|2---2--3-3-0|3---------------||
G|2---2--4-4--|2---------------||
D|2-222225-5--|0---------------||
A|0-00000-----|----------------||
E|------------|----------------||

E| ------------2-20|2-20202-20-----0|5---4---3-332-20|202-2-----------|
B| 2---0---0---3-30|3-33333-33332122|5---5---3-333-33|333-3---2---2---|
G|o2---1---0---2-20|2-20202-20222-22|6---4---4---2-20|2-2-2---2--242--|
D|o2---2---0---4---|------------2--2|7---6---5-------|0-0-0-2-234---34|
A| 0---2-------0---|----------------|----------------|----------------|
E| ----0---3-------|----------------|----------------|----------------|
   I wanna tell you bout the girl I love.....
   On Sunday morning when we go down to church.....

                                    3/4 time     4/4 time
E|--------3-332-20|20202-22--------|5-0-4-0-2-20|2---------------|
B|2---0---3-333-33|33333-333333----|5-5-5-5-2-20|3---------------|
G|2---1---0---2-20|20202-2222222-22|6-6-4-4-2-2-|2---------------|
D|2---2---0---4---|--------00002-22|7-7-6---4-4-|0---------------|
A|0---2-----------|-------------34-|------------|----------------|
E|----0-----------|----------------|------------|----------------|
[ Tab from: http://www.guitartabs.cc/tabs/l/led_zeppelin/hey_hey_what_can_i_do_tab_ver_2.html ]
E|----0--3-2202-20|20202-202-2----0 |
B|2---2--3-3333-33|33333-333-3-2122 |
G|2---2--0-2202-22|2---2-2-----2222o| Play these two
D|2---2--0-44-4---|4-----------2-2-o| measures 4 times then
A|0---0-----------|---------------- | repeat back to beginning
E|----------------|---------------- | of verse

E|------------2-20|2-20202-20-----0|5---4---3-332-20|202-2-----------|
B|2---0---0---3-30|3-33333-33332122|5---5---3-333-33|333-3---2---2---|
G|2---1---0---2-20|2-20202-20222-22|6---4---4---2-20|2-2-2---2--242--|
D|2---2---0---4---|------------2--2|7---6---5-------|0-0-0-2-234---34|
A|0---2-------0---|----------------|----------------|----------------|
E|----0---3-------|----------------|----------------|----------------|
   And in the bars where the men play guitars.....

                                    3/4 time     4/4 time
E|--------3-332-20|20202-22--------|5-0-4-0-2-20|2---------------|
B|2---0---3-333-33|33333-333333----|5-5-5-5-2-20|3---------------|
G|2---1---0---2-20|20202-2222222-22|6-6-4-4-2-2-|2---------------|
D|2---2---0---4---|--------00002-22|7-7-6---4-4-|0---------------|
A|0---2-----------|-------------34-|------------|----------------|
E|----0-----------|----------------|------------|----------------|

E|----0--3-2202-20|20202-202-2----0|
B|2---2--3-3333-33|33333-333-3-2122|
G|2---2--0-2202-22|2---2-2-----2222| Play these two
D|2---2--0-44-4---|4-----------2-2-| measures 4 times
A|0---0-----------|----------------|
E|----------------|----------------|

E|----0--3-2202-20|20202-202020----|-------3-2202-22|2-000-222-000-222--------------|
B|2---2--3-3333-33|33333-333-332121|-------3-3333-33|3-333-333-333-333-------------2|
G|2---2--0-2202-22|2---2-2-2-222222|-------0-2222-22|2-000-222-000-222-------------2|
D|2---2--0-44-4---|4-----------2-2-|2---2--0-0--0-00|0-000-000-000-000-------2-----2| repeat
A|0---0-----------|----------------|0---0-----------|--------------------3-4-0------| ad lib.
E|----------------|----------------|----------------|-------------------------------| to fade
  Hey hey what can I do.....
Comments