Led Zeppelin - Heartbreaker Chords & Tabs

 

Heartbreaker Chords & Tabs

Led Zeppelin Chords & Tabs

Version: 5 Type: Tab 0 ratings
1 star 2 stars 3 stars 4 stars 5 stars
comments

Heartbreaker Tab

This sounds real good to me. So if you have a problem with it too bad.
Im not sure of the tuning. so i just flick the switch to the high pitch
setting and play it in standard tuning.
[ Tab from: http://www.guitartabs.cc/tabs/l/led_zeppelin/heartbreaker_tab_ver_5.html ]
E---------3^-----------------------------3------------------------3-------------
A-------------0---3---------------------------0-0-0-0-3-------------------------
D-------------------------0--1--2------------------------0--1--2----------------
G-------------------------------------------------------------------------------
B-------------------------------------------------------------------------------
e-------------------------------------------------------------------------------
Repeat 2x then...

E-------------------------------------------------------------------------------
A---------------------3----------------------------3----------------------------
D---0---3-------------------0-0-0-0-3-------------------------------------------
G----------0--1--2----------------------0--1--2---------------------------------
B-------------------------------------------------------------------------------
e-------------------------------------------------------------------------------
Then go back to the first one once more.....then it goes into the song
Comments