Led Zeppelin - Heartbreaker Chords & Tabs

 

Heartbreaker Chords & Tabs

Led Zeppelin Chords & Tabs

Version: 3 Type: Tab 0 ratings
1 star 2 stars 3 stars 4 stars 5 stars
comments

Heartbreaker Tab

   
Led Zeppelin,Heartbreaker.
Tabbed by Jeremy Blessing,Huggbee08@aol.com.
  
Here's Heartbreaker off of Led Zeppelin II.  It's in Am.

Riff 1
e|------------------------------------------|
B|------------------------------------------|
G|------------------------------------------|
D|------------------------------------------|
A|---------5--6-7-----------------5--6-7----|
E|--5---8---------3----5-5-5-5-8---------3--|

Riff 2
e|--------------------------------------------|
B|--------------------------------------------|
G|--------------------------------------------|
D|--------------------------------------------|
A|----------7--8-9------------------7--8-9----|
E|--7---10---------5----7-7-7-7-10---------5--|

Riff 3
|:A5----->D5 |A5     :|
  1 2 3 4 and 1 2 3 4
[ Tab from: http://www.guitartabs.cc/tabs/l/led_zeppelin/heartbreaker_tab_ver_3.html ]
|D5 |A5 D5 A5 D5 A5       |
 and 1  and2  and3 and4and

Riff 4
e|----------------------------------------------|
B|----------------------------------------------|
G|----------------------------------------------|
D|----------------------------------------------|
A|----------8--9-10------------------8--9-10----|
E|--8---11----------6----8-8-8-8-11----------6--|

Riff 5
e|-------------------------------------------------------|
B|-------------------------------------------------------|
G|-------------------------------------------------------|
D|-------------------------------------------------------|
A|-----------10--11-12----------------------10--11-12----|
E|--10---13------------8----10-10-10-10-13------------8--| 
:: Ultimate Guitar Archive :: 
http://www.ultimate-guitar.com 

Comments