Led Zeppelin - Heartbreaker Chords & Tabs

 

Heartbreaker Chords & Tabs

Led Zeppelin Chords & Tabs

Version: 2 Type: Tab 0 ratings
1 star 2 stars 3 stars 4 stars 5 stars
comments

Heartbreaker Tab

   
Heartbreaker
Led Zeppelin

TAB Symbols
===========

b - bend note 1/2 step
B - bend note full step
bb - bend note 1/4 step
/ - slide up
\ - slide down

Intro:
======
	<---------Repeat 3x-------------->
e:|----|---------------------------------|
B:|----|---------------------------------|
G:|----|---------------------------------|
D:|----|---------------------------------|
A:|----|---3-5-6-7-------------3-5-6-7---|
E:|-3b-|-5---------3bb-5-5-5-5---------3-|

Then play this riff once:

e:|---------------------------------|
B:|---------------------------------|
G:|---------------------------------|
D:|---------------------------------|
A:|---5-7-8-9-------------5-7-8-9---|
E:|-7---------5bb-7-7-7-7---------5-|

After this, play the first riff once more.


Verses
======

e:|---------------------------------------7-5----------------------------|
B:|---------------------------------------7-5----------------------------|
G:|---------------------------------------7-5----------------------------|
D:|---------------------------------------7-7----------------------------|
A:|-7--Let-ring--/-/-/-/-/-/-/-/-10-------5-7----------------------------|
E:|-5--Let-ring--/-/-/-/-/-/-/-/--8-------5------------------------------|
    Hey fellas have you heard the news      you know the ?'s back in town

    A woman came 'long just to watch an' see all the fellas lay their
							   money down

    The ?style? is new but the pay's the same as it was so long ago

    But from her eyes a different smile [can't understand this at all]

Now, play this 3x:

e:|-7-5-|	After this, go to the 1st intro riff, and play it
B:|-7-5-|	twice.  Then, play the 2nd riff once, and the 1st
G:|-7-5-|	riff once.
D:|-7-7-|
A:|-5-7-|
E:|---5-|


Play the 'chrod' riff (above) 3x, and then this:

e:|------------------------------------|
B:|------------------------------------|
G:|------------------------------------|
D:|------------------------------------|
A:|---6-8-9-10-------------6-8-9-10----|
E:|-8----------6bb-8-8-8-8-----------6-|
Play 2x
[ Tab from: http://www.guitartabs.cc/tabs/l/led_zeppelin/heartbreaker_tab_ver_2.html ]
e:|-----------------------------------------------|
B:|-----------------------------------------------|
G:|-----------------------------------------------|
D:|-----------------------------------------------|
A:|----8-10-11-12-------------------8-10-11-13----|
E:|-10------------10bb--10-10-10-10------------10-|
Play 1x

e:|------------------------------------------------|
B:|------------------------------------------------|
G:|------------------------------------------------|
D:|------------------------------------------------|
A:|----10-12-13-14------------------10-12-13-14----|
E:|-12-------------12bb-12-12-12-12-------------12-|
Play 1x

The lyrics for this part are:

People talkin' all around
'bout the way you left me flat
i don't care what the people say
i know where their job is at
one thing i do have on my mind
if you could cloarify please do
is the way you called me another guy's name
when i tried to make love . . . to you

just after 'to you', this riff comes in:

e:|------------------------------------------|
B:|-3---3-3---3-3---3-5--3---3-3---3-3---3-5-|
G:|---4-----4-----4--------4-----4-----4-----|
D:|------------------------------------------|
A:|------------------------------------------|
E:|------------------------------------------|


        SOLO INTRO:


play a twice, then just whatever
-------------------------------
-2--5-2-0--------------------------
----------2-0-------------
--------------2-0----------------
------------------3-------------
-------------------------------

everyone joins back in with this

4x
------------------------
--2---3---5---7---5---3-
--0---0---0---0---0---0-
--2---4---5---7---5---4-
--0---0---0---0---0---0-
------------------------

 bass plays this while guitar plays the above, then Jim starts
------------------------     playing this too.
------------------------
------------------------ play 12 times
--------------55--2-4--2
--0---3---4-------------
------------------------

4x
-------------- ---------
-5---3---5---8 ---5--3--
-6---4---6---9 ---6--4--
-7---5---7---10---7--5--
-7---5---7---10---7--5--
-------------- ---------

hit this chord 25 times
-----------------
-5-----------------------
-6-----------------------
-7-----------------------
-7-----------------------
------------------------



Comments