Led Zeppelin - Heartbreaker Chords & Tabs

 

Heartbreaker Chords & Tabs

Led Zeppelin Chords & Tabs

Version: 1 Type: Tab 6 ratings
1 star 2 stars 3 stars 4 stars 5 stars
comments

Heartbreaker Tab

Heartbreaker Tab-
Led Zeppelin


[ Tab from: http://www.guitartabs.cc/tabs/l/led_zeppelin/heartbreaker_tab.html ]
e|---------------------------------|-----------------------------|
B|---------------------------------|-----------------------------|
G|---------------------------------|-----------------------------|
D|--------0-1-2------------0-1-2---|-----0-1-2------------0-1-2--|
A|----0-3--------0-0-0-0-3---------|-0-3--------0-0-0-0-3--------|
E|--b3---------3-----------------3-|----------3----------------3-|

e|---------------------------------|-----------------------------|
B|---------------------------------|-----------------------------|
G|---------------------------------|-----------------------------|
D|-----0-1-2------------0-1-2------|-----2-3-4----------2-3-4----|
A|-0-3--------0-0-0-0-3------------|-2-5-------2-2-2-2-5---------|
E|----------3-----------------3----|----------5--------------5---|
Comments