Led Zeppelin - Heartbreaker Chords & Tabs

 

Heartbreaker Chords & Tabs

Led Zeppelin Chords & Tabs

Version: 3 Type: Bass Tab 0 ratings
1 star 2 stars 3 stars 4 stars 5 stars
comments

Heartbreaker Bass Tab

Heartbraker by Led Zeppelin
tabbed by Doug(appetite_for_destruction69@hotmail.com)
standard tuning

Intro     2x

G:-------------------------------------------|
D:------0---1-2-------------0------1-2-------|
A:-0--3-----------0-0-0-0-3------------------|
E:--------------3-----------------------3----|

G:--------------------------------------|
D:---0--2---3-4-----------0--2---3-4----|
A:-2--------------2-2-2-2---------------|
E:--------------5---------------------5-|

G:--------------------------------------------|
D:------0---1-2-------------0------1-2--------|
A:-0--3-----------0-0-0-0-3-------------------|
E:--------------3-----------------------3-----|


Verse   4x

G:-----------------------------------|
D:-----------------------------------|
A:-----------------------------------|
E:---5/8--------5/8-8-8--------------|

G:--------------|
D:--------------|
A:-5---5---5----|
E:---5---5---5/-|

Chorus    2x

G:--------------------------------------------------|
D:------0---1-2-------------0------1-2--------------|
A:-0--3-----------0-0-0-0-3-------------------------|
E:--------------3-----------------------3-----------|

G:--------------------------------------|
D:---0--2---3-4-----------0--2---3-4----|
A:-2--------------2-2-2-2---------------|
E:--------------5---------------------5-|

G:--------------------------------------------|
D:------0---1-2-------------0------1-2--------|
A:-0--3-----------0-0-0-0-3-------------------|
E:--------------3-----------------------3-----|


Verse   4x
[ Tab from: http://www.guitartabs.cc/tabs/l/led_zeppelin/heartbreaker_btab_ver_3.html ]
G:-----------------------------------|
D:-----------------------------------|
A:-----------------------------------|
E:---5/8--------5/8-8-8--------------|

G:--------------|
D:--------------|
A:-5---5---5----|
E:---5---5---5/-|


Chorus    2x

G:------------0-------------------0---|
D:----1--3-4--------------1--3-4------|
A:--3-----------1-3-3-3-3-----------1-|
E:------------------------------------|

G:-------0--1-2-------------0--1-2--|
D:---0-3----------0-0-0-0-3---------|
A:--------------3-----------------3-|
E:----------------------------------|

G:-----0-2--3-4------------0-2--3-4----|
D:--2-----------0-2-2-2-2----------0---|
A:-------------------------------------|
E:-------------------------------------|

"..to you!"
                           2x
G:----------------------------|
D:-2-2-2-2-0------------------|
A:-----------2-0--------------|
E:---------------2--0---------|


A break for the 1st solo...

After the 1st solo       3x

G:---------------------------|
D:--------5-4--5-4-----------|
A:---0-3---------------------|
E:---------------------------|


During the 2nd solo

G:----------------------|
D:------0--2-0----------|
A:--0-3--------3--------|  during all of the solo
E:----------------------|

Verse      4x

G:-----------------------------------|
D:-----------------------------------|
A:-----------------------------------|
E:---5/8--------5/8-8-8--------------|

G:--------------| 2x
D:--------------|
A:-5---5---5----|
E:---5---5---5/-|

Outro

G:------------0-------------------0---|
D:----1--3-4--------------1--3-4------|
A:--3-----------1-3-3-3-3-----------1-|
E:------------------------------------|

G:------------0------------------0---|
D:----1--3-4--------------1--3-4-----|
A:--3-----------1-3-3-3-3------------|
E:-----------------------------------|
Comments