Led Zeppelin - Heartbreaker Chords & Tabs

 

Heartbreaker Chords & Tabs

Led Zeppelin Chords & Tabs

Version: 1 Type: Bass Tab 6 ratings
1 star 2 stars 3 stars 4 stars 5 stars
comments

Heartbreaker Bass Tab

Heartbreaker - Led Zeppelin

  intro
G|----------------------------------------------------------------------------------------|
D|----------------------------------------------------------------------------------------|
A|--3-5-67------3-5-67----3-5-67------3-5-67----5-7-89------5-7-89----3-5-67------3-5-67--|
E|5-------3-5555------3-5-------3-5555------3-7-------5-7777------5-5-------3-5555------3-|

  verse
G|----------------------------------------------------------------------------------|
D|--------0----------------0------------------0------------------0--------0--0--7---|
A|0-0-/3----0-0-3--0-0-/3----0-0-313--0-0-/3----0-0-3-32-0-0-/3----0-0-3---0--0--9\-|
E|----------------------------------------------------------------------------------|
[ Tab from: http://www.guitartabs.cc/tabs/l/led_zeppelin/heartbreaker_btab.html ]
  "people talkin' all around about.."
G|---------------------------------------------------------------------------------------
D|--1-3-45----1-3-45----1-3-45----1-3-45----3-5-67----3-5-67----5-7-89----5-7-89---------
A|3-------1-3-------1-3-------1-3-------1-5-------3-5-------3-7-------5-7-------5--7-757-
E|---------------------------------------------------------------------------------------

------------------------------------------------------------|
------------------------------------------------------------|
5-54300-7-757-5-54300-7-757-5-54300-7-757-5-54300-7-7-7-----|
--------------------------------------------------------5-0-|

  solo
G|------------------------------------------------------------------------|
D|---3-5-35---3-5-35---3-5-35-------3--------3--------3--------3----------|
A|---------5--------5--------5--3-5--53--3-5--53--3-5--53--3-5--53-simile-|
E|35--------5--------5--------5--------5--------5--------5----------------|

A tab by Achilles (blue_sincere@hotmail.com)

Comments