Led Zeppelin - Good Times Bad Times Chords & Tabs

 

Good Times Bad Times Chords & Tabs

Led Zeppelin Chords & Tabs

Version: 4 Type: Bass Tab 0 ratings
1 star 2 stars 3 stars 4 stars 5 stars
comments

Good Times Bad Times Bass Tab

The isn't the whole song, but bits and pieces, i'm still trying to put the chrous together, but it's like this

Intro
G:--------------
D:--------------
A:-7-7-----7-7--
E:--------------

Verse:

G:-----------7---7-------------------
D:---------7---7--7----7--4----------
A:-7-7---5----------5------4-5-6--7-7
E:-----------------------------------
[ Tab from: http://www.guitartabs.cc/tabs/l/led_zeppelin/good_times_bad_times_btab_ver_4.html ]
First Bass Solo
G:---0-4-3-2--------------
D:-----------0-4-0-2-1----
A:2--------------------2-0
E:------------------------

Second solo
This part can be tricky. If you want it to sound like how JPJ is doing it, I suggest
barring the 7th fret on both the D and G string, and while you're hammering onto 9 from
7 on the D string, right after you can hit that high D.
G:----7-----
D:7h9-------
A:----------     x4
E:----------

That's all I got for now
Comments