Led Zeppelin - Good Times Bad Times Chords & Tabs

 

Good Times Bad Times Chords & Tabs

Led Zeppelin Chords & Tabs

Version: 1 Type: Bass Tab 3 ratings
1 star 2 stars 3 stars 4 stars 5 stars
comments

Good Times Bad Times Bass Tab

Song: Good Times Bad Times
Artist: Led Zeppelin
Album: Led Zeppelin 1


Here is the real version of Good Times  for you!
 
This is the Intro 

G----------------------------------------------|
D----------------------------------------------|
A----7-7--7-7--7-7--7-7--7-7-------------------|
E----------------------------------------------|

If you want you can throw in some little riffs in between.
That is what I do but I wont transcribe them. You can make
Up your own!

This is the chorus. Played 6 times

G------------7--7-----------2------------------|
D--------0--7--7--7---0--4---------------------|
A--7-7------------------------4-5-6-7-7-------|
E---------------------------------------------|

G----------------------------------------------|
D----------------------------------------------|
A------5-5-----5-5-----7-7---------------------|
E--5-5-----5-5-----7-7-----7-7-7-7-7-----------|

First Solo
[ Tab from: http://www.guitartabs.cc/tabs/l/led_zeppelin/good_times_bad_times_btab.html ]
G-----4--3--2----------------------------------|
D----4--------0-4-0-2-0------------------------|
A---2-----------------2--0---------------------|
E----------------------------------------------|

This is the chorus except a whole step higher


G----------------------------------------------|
D------2-2-----2-2-----4-4---------------------|
A--2-2-----2-2-----4-4-----4-4-4-4-4-------4---|
E----------------------------------------------|

This is played during the guitar solo

G----9--9-----7--------------------------------|
D---9--9--9--7--7------------------------------|
A--7--------5---5---0--------------------------|
E----------------------------------------------|

This part is the Second Solo

G-------7-----7-----7-----7-----7h9------------|
D---7h9---7h9---7h9---7h9---7h9----------------|
A----------------------------------------------|
E-----------------------------------0-0--------|


If you put these parts in order you’ll be able to figure it out!
Comments