Led Zeppelin - Gallows Pole Chords & Tabs

 

Gallows Pole Chords & Tabs

Led Zeppelin Chords & Tabs

Version: 3 Type: Tab

Gallows Pole Tab

Gallows Pole
Led Zeppelin III

Tabbed by: Matt Schultz
E-mail: Hippieboy444@aim.com

Tuning: Standard Tuning

Guitar Solo
      ~~~~~~                    ~~~
E|-------------------------|-----------------------------------------------|
B|----)-----------17----)--|-------------------------------)---------------|
G|--16----------------16---|--14---------------------14--16---16--14-------|
D|-------------------------|-----------------14--16-------------------16---|
A|-------------------------|-----------------------------------------------|
E|-------------------------|-----------------------------------------------|

      ~~
E|--------------------------------------------------|------------------------
B|----------------)---------------------------------|----)-------------------
G|--14------14--16---14-----------------14--16--14--|--16---16---------------
D|-----------------------------14^16----------------|------------------------
A|--------------------------------------------------|------------------------
E|--------------------------------------------------|------------------------

E|--------------------|--------------------------------------|---------------
B|--------------------|--------)--------------)-----)-----)--|---------------
G|---------14--16^14--|--14--16-----16--14--16----16----16---|--16--14-------
D|--14^16-------------|--------------------------------------|-----------16--
A|--------------------|--------------------------------------|---------------
E|--------------------|--------------------------------------|---------------

              ~~
E|--------------------------------14----|----17^14------14-------------------
B|-------------------------)--14------17^14---------17------17--14-----------
G|--16------14----16--14-16-------------|---------------------------17--16--X
D|------16------------------------------|------------------------------------
A|--------------------------------------|------------------------------------
E|--------------------------------------|------------------------------------

E|-----------------------|----------------------------------)--------)---|
B|-----------)-----------|--------------------------------20-------20----|
G|--14--14-16----16--14--|--16------14--16-----16------------------------|
D|-----------------------|------16---------------------------------------|
A|-----------------------|-----------------------------------------------|
E|-----------------------|-----------------------------------------------|

                                                                     ~~~~
E|----)-----)--------------------------|-------------------------------------
B|--20----20----20--17-----------------|-------------------)-----------------
G|----------------------18\------------|--------------14-16----16--14--(14)\-
D|-------------------------------------|------14--16-------------------------
A|-------------------------------------|-------------------------------------
E|-------------------------------------|-------------------------------------

                                      ~~
E|-------------------------------------------------------------|-------------
B|-------------------------------------------------------------|-------------
G|--17--17--17--17--16--14------16--------14---16--14--14--14--|--16--16--14-
D|--------------------------16------16-------------------------|-------------
A|-------------------------------------------------------------|-------------
E|-------------------------------------------------------------|-------------

E|----------------------------------------|----------------------------------
B|--------20--19--17------19--17----------|----------------------------)-----
G|-14-----------------17----------17--16--|--------------------------19------
D|----------------------------------------|----19--17-----------/19----------
A|----------------------------------------|------------19--17\16-------------
E|----------------------------------------|----------------------------------

                            ~~~
E|----------|-----------------------------------------|----------------------
B|----------|----)------------------------------------|--------------------17
G|--17--19--|--19-----18------------------------------|--17------------------
D|----------|-------------19-------19^17------17--19--|------19^17--19-------
A|----------|-----------------------------19----------|----------------------
E|----------|-----------------------------------------|----------------------

                                 ~~~
E|------|------------------------------------------------|------------------|
B|---)--|----------------)------------------17--17----)--|------17-----)----|
G|-19---|--------------16------14-------------------16---|-----------16---16|
D|------|------------------------------------------------|------------------|
A|------|------------------------------------------------|------------------|
E|------|------------------------------------------------|------------------|
[ Tab from: http://www.guitartabs.cc/tabs/l/led_zeppelin/gallows_pole_tab_ver_3.html ]
                                                      ~~
E|--------------------------------------|-----------------------------------|
B|--------------------------------------|--17----)--------17--15------------|
G|--14------14-------------------14-----|------16---14----------------------|
D|------16------16^14-------/16---------|-----------------------------------|
A|---------------------16^14------------|-----------------------------------|
E|--------------------------------------|-----------------------------------|

                                                                   ~~
E|--------------------------------------|------------------------------------
B|--19--------20-19-17-----19-17--------|------------------------------------
G|----------------------17-------17-16--|-----14----------------/14----------
D|--------------------------------------|---------17--14-----------------/-16
A|--------------------------------------|-----------------18\16--------------
E|--------------------------------------|------------------------------------

                                                            ~~
E|-----------|------------------------)------|----)--------------------------
B|--------)--|----------------------17-------|--17----16--14-------14------)-
G|--14--16---|--14--16---14---16-------------|------------------------14-16--
D|-----------|-------------------------------|-------------------------------
A|-----------|-------------------------------|-------------------------------
E|-----------|-------------------------------|-------------------------------

                            ~~
E|------------|----------------------|------------------------------------|
B|------------|----------------------|-----------------)--------)-----19--|
G|----14--16--|-----14-16-14----16---|------------17-19-------19----------|
D|------------/16--------------------|-------19---------------------------|
A|------------|----------------------|------------------------------------|
E|------------|----------------------|------------------------------------|

E|---------------------------------------------------|-----------------------
B|---------------------------------------------------|-------X---)-----------
G|--20--19--17----------------14--16^14------14--16--|--14-----16-----14-----
D|----------------19-----/16-------------16----------|-----------------------
A|---------------------------------------------------|-----------------------
E|---------------------------------------------------|-----------------------

E|----------------------------|---------------------------------------------
B|----20--19--17------19--17--|---------------------------------------------
G|----------------17----------|-----17--16--14---------------------------14-
D|----------------------------|-----------------17--14-------------14-------
A|----------------------------|-------------------------17--16--------16----
E|----------------------------|---------------------------------------------

E|---------|------------------------------17^14------14-----------------|----
B|------)--|--14---------------------------------17------17--14---------|----
G|-16-16---|------14--16--14--16^14--14--------------------------17--16-|--14
D|---------|------------------------------------------------------------|----
A|---------|------------------------------------------------------------|----
E|---------|------------------------------------------------------------|----

E|--------------------------------14--14--14--14------14--14--|----------
B|---------------------------)----14--14----------)---14------|---17^14--
G|------16------14--16--14-16-------------------16------------|----------
D|--16------16------------------------------------------------|----------
A|------------------------------------------------------------|----------
E|------------------------------------------------------------|----------

                               ~~~                               ~~~
E|--------------------------------------------|------)----------------------|
B|--------------------------------------------|----10------8---10--------0--|
G|--16-^-14------16----------14-----14\-------|-----------------------------|
D|-----------16------16--16-------------------|-----------------------------|
A|--------------------------------------------|-----------------------------|
E|--------------------------------------------|-----------------------------|

                            ~~~
E|---------------------------------|--------------------10^7-----------------
B|--10^9------9--10--12-9^10-------|---8^7-----7--8--0--------8^7------------
G|--------11-----------------------|--------9----------------------9--7--6---
D|---------------------------------|----------------------------------------7
A|---------------------------------|-----------------------------------------
E|---------------------------------|-----------------------------------------

                                                                    fade out
E|-------|---------------------------------|----------------------)----------
B|-------|------------------------------)--|-----------------10-12-----10--12
G|--7^6--|--7^6---------------------7--5---|------------/11------------------
D|-------|-------7--5----------------------|-7----7--------------------------
A|-------|-------------7--5--4-------------|---------------------------------
E|-------|---------------------------------|---------------------------------