Led Zeppelin - Gallows Pole Chords & Tabs

 

Gallows Pole Chords & Tabs

Led Zeppelin Chords & Tabs

Version: 3 Type: Bass Tab

Gallows Pole Bass Tab

   
Gallows Pole-Led Zeppelin
Tabbed By : Thayer
email: livewire2690@comcast.net


G|------------------------------|
D|------------------------------|
A|------------------------------|
E|3-5-3-5-5-5-5-5-3-5-3-5-5-5-5-|

Verse:
[ Tab from: http://www.guitartabs.cc/tabs/l/led_zeppelin/gallows_pole_btab_ver_3.html ]
G|-2---0---2-4---------0--2--0-----0-40-2--0--2-4--------|---------------|
D|-------------0---2-4---------2-4----------------0--2-4-|5-42-----------|
A|-------------------------------------------------------|----5320-------|
E|-------------------------------------------------------|--------3-5-3-5|

G|----------------|----------------|----------------|----------------|
D|----------------|----------------|----------------|5-42------------|
A|----------------|----------------|----------------|----5320--------|
E|3-5-3-5-5-5-5-5-|3-5-3-5-5-5-5-5-|5-5-5-5-5-5-5-5-|--------3-5-3-5-|

Ending:

G|----------------|
D|5-42------------|
A|----5320--------|
E|--------3-5-3-5-| x34