Led Zeppelin - Friends Chords & Tabs

 

Friends Chords & Tabs

Led Zeppelin Chords & Tabs

Version: 1 Type: Tab 2 ratings
1 star 2 stars 3 stars 4 stars 5 stars
comments

Friends Tab

   
Led Zeppelin - 'Friends'


Tunning   C G C G C E

 4/4
  Gtr I
|-0---0----0------0------|-0---0----0-------0---------|
|-0---0----0------0------|-0---0----0-------0---------|
|-0---0----0------0------|-0---0----0-------0---------|
|-0---0----0------0------|-0---3----0-------0---------|
|-0---0----0------0------|-0---0----0-------0---------|
|-0---0----0------0------|-0---0----0-------0---------|


     $
||---0---0---0---0---0--3--0--2--0--0--2--0--2--0--2--3----|
||o--0---0---0---0---0--3--0--2--0--0--2--0--2--0--2--3----|
||---0---0---0---0-----------------------------------------|
||---0---0---0---0-----------------------------------------|
||o--0---0---0---0-----------------------------------------|
||---0---0---0---0-----------------------------------------|


                       1.                  2.
                                                           D.S.
|-0-0-0-0--|-0-3-0-2-0--0-2--3-2-3-2-0--||---0-0-----0--0---0-----|
|-0-0-0-0--|-0-3-0-2-0--0-2--3-2-3-2-0-o||---0-0---0----0---0-----|
|-0-0-0-0--|----------------------------||---0-0---0-0--0-0-0-----|
|-0-0-0-0--|----------------------------||--/3-2--/5-4--7-6-9-----|
|-0-0-0-0--|---------------------------o||---0-0---0-0--0-0-0-----|
|-0-0-0-0--|----------------------------||--/3-2--/5-4--7-6-9-----|






Verse
[ Tab from: http://www.guitartabs.cc/tabs/l/led_zeppelin/friends_tab.html ]
|-0---------|------0----|---------0--0-------------------------|
|-0--0----0-|---0--0--0-|---0---0-0--0---0----0--0--0----0---0-|
|-0--0----0-|---0--0--0-|---0---0-0--0---0----0--0--0----0---0-|
|-1--0----0-|---0--7--6-|---6---6-7--9---9----9--4--6----6---6-|
|-0--0------|------0--0-|---------0--0-----------0--0----------|
|-1--0-0----|-0----7--6-|-6---6---7--9-9---9-----4--6--6---6---|


|-0-----------|-------0-----|--------------|
|-0--0-----0--|----0--0--0--|----0-----0---|
|-0--0-----0--|----0--0--0--|----0-----0---|
|-1--0-----0--|----0--7--6--|----6-----6---|
|-0--0--------|-------0--0--|--------------|
|-1--0--0-----|-0-----7--6--|-6-----6------|


|-0--0--------|-------------|--------------|
|-0--0-----0--|----0--0--0--|----0-----0---|
|-0--0-----0--|----0--0--0--|----0-----0---|
|-7--9-----9--|----9--4--6--|----6-----6---|
|-0--0--------|-------0--0--|--------------|
|-7--9--9-----|-9-----4--6--|-6-----6------|



|-0--0--------|-------0-----|--------------|
|-0--0-----0--|-------0--0--|----0-----0---|
|-0--0-----0--|----0--0--0--|----0-----0---|
|-1--0-----0--|----0--7--6--|----6-----6---|
|-0--0--------|----0--0--0--|--------------|
|-1--0--0-----|-0--0--7--6--|-6-----6------|


|-0--0---0------|----------------|------------|
|-0--0---0------|--0-------0--0--|-0-----0----|
|-0--0---0------|--0-------0--0--|-0-----0----|
|-7--9-/11------|-11------11--4--|-6-----6----|
|-0--0---0------|-------------0--|-0-----0----|
|-7--9-/11--11--|-----11------4--|-6--6--6----|


     $
||---0---0---0---0---0--3--0--2--0--0--2--0--2--0--2--3----|
||o--0---0---0---0---0--3--0--2--0--0--2--0--2--0--2--3----|
||---0---0---0---0-----------------------------------------|
||---0---0---0---0-----------------------------------------|
||o--0---0---0---0-----------------------------------------|
||---0---0---0---0-----------------------------------------|



|-0-0-0-0--|-0-3-0-2-0--0-2--3-2-3-2-0--|
|-0-0-0-0--|-0-3-0-2-0--0-2--3-2-3-2-0-o|
|-0-0-0-0--|----------------------------|
|-0-0-0-0--|----------------------------|
|-0-0-0-0--|---------------------------o|
|-0-0-0-0--|----------------------------|
Comments