Led Zeppelin - Fool In The Rain Chords & Tabs

 

Fool In The Rain Chords & Tabs

Led Zeppelin Chords & Tabs

Version: 3 Type: Bass Tab 0 ratings
1 star 2 stars 3 stars 4 stars 5 stars
comments

Fool In The Rain Bass Tab

Led Zeppelin - Fool in the rain
From "In Through The Out Door"
Written by Page/Plant/Jones
Performed by John Paul Jones

Riff 1
---------2-0-----------------0-
---0-2-3------------0-2-3--3---
-3----------------3------------
-------------3-----------------
[ Tab from: http://www.guitartabs.cc/tabs/l/led_zeppelin/fool_in_the_rain_btab_ver_3.html ]
Riff 2
-----0---2-5-4-0---4---2--------
---2---3-------------0---3-0-2--
-3-----------------^-^-^-^-^-^--
-------------------(real quick)-

Riff 3 (Middle Part)
---------2-2-2-0-0-   
-----3-3-----------
-3-3---------------
-------------------

Submitted by macgregger@hotmail.com
questions? just ask
Comments