Led Zeppelin - Dazed And Confused Chords & Tabs

 

Dazed And Confused Chords & Tabs

Led Zeppelin Chords & Tabs

Version: 7 Type: Tab 0 ratings
1 star 2 stars 3 stars 4 stars 5 stars
comments

Dazed And Confused Tab

Led Zeppelin
Dazed and Confused Intro

Bassey bit
e|--------------------------------------|
B|--------------------------------------|
G|--------------------------------------|
D|---------5-4-3-2----------------------|
A|-------------------------5-4-3-2-1----|
E|--0----------------0------------------|

Repeat that a few times and go to:
[ Tab from: http://www.guitartabs.cc/tabs/l/led_zeppelin/dazed_and_confused_tab_ver_7.html ]
Riff
e|-----------------------------------------------|
B|-----------------------------------------------|
G|----------------2-4----------------------------|
D|----------2-4--------2-4-----------------------|
A|---2-2--------------------2-2-2----------------|
E|-----------------------------------------------|

This is my first tab so I hope everything goes well!
Any (good) comments please email me at soddinghell@hotmail.com
Comments