Led Zeppelin - Dazed And Confused Chords & Tabs

 

Dazed And Confused Chords & Tabs

Led Zeppelin Chords & Tabs

Version: 3 Type: Tab 10 ratings
1 star 2 stars 3 stars 4 stars 5 stars
comments

Dazed And Confused Tab

   
Dazed And Confused-Complete with live Violin Bow Solo by Led Zeppelin
Notation Used

Bends

Bend                                                          ----5b(7)--------
Rising Bend                                                                                                                                 ----5b(5)(6)(7)--
Choke Bend                                                                                                                       ----5b(7)x-------
Tease Bend                                                    ----5b(6)”(7)----
Pre Bend                                                      ----b(7)r5-------

Fretting Hand Techniques

Hammer on                                                     ----5h7-----
Pull Off                                                      ----7p5-----
Trill                                                         ----5tr7----
Slide                                                         ----5/7-----
Glissando Slide                                               ----5//7----
Vibrato                                                       ----5~~-----
Hold or let ring                                              ----5==-----
Harmonics

Natural Harmonics                                             ----*12*-----
Touch Harmonics                                               ----`12’-----
Fretted Harmonics                                             ----^13^-----
Pinched Harmonics                                             -----!3!------

Muting

                                                               P.M---------

Palm Mute                                                      --3-3-3-3-3--- 

Fretting Hand Mute                                             --X-X-X-X-X--- 

Picking Hand Techniques

                                                                  Down      Up
Raking                                                         ------
Staccato                                                       -----5.-7.-8.--------

                                                                   T       T
Tapping                                                        ----7p3p0—--8p3p0----

Effects

Feedback                                                        -----#####-----

Tremlo                                                          -----5_-_-_----

Violining                                                       -----5vvvVVV---

                                                                   swell    Dim
                                                                   >
Volume Pedal                                                    --5--------5----
 



I’ll need new notation for the violin bow. This is to do with how you move the bow.

Violin Bow
                                                                       `’`’`’`’
Rapidly move Bow Back and forth                                   ----5-------

                                                                     *
Strike Strings with bow                                           ---5-------

                                                                     ^
Bounce Bow off strings                                            ---5--------                                                             

Bassline provided for timing of the harmonics during the intro
Jimmy played this on a Gibson Les Paul live, but the original studio version was recorded on a Fender Telecaster

INTRO
(pickups set to Treble)
Guitar(all guitar here is natural harmonics)
(With wah)
e|-------------------------*12*--------------
b|----------------------*12*-----------------
g|-------------------------------------------
d|------------------------------------------- 
a|------------------------------------------- 
E|------------------------------------------- 

Bass
g|------------------------------------------- 
d|------------------------------------------- 
a|------10~~9~~8~~7~~\-----5~~4~~3~~2~~------ 
e|-0----------------------------------------- 

			
			*here bend the G string 
Guitar			above the nut
e|----*5*------------------------------------ 
b|-*5*--------------------------------------- 
g|--------------------*12*~~~~--------------- 
d|------------------------------------------- 
a|------------------------------------------- 
E|------------------------------------------- 

Bass
g|------------------------------------------- 
d|------------------------------------------- 
a|------10~~9~~8~~7~~\-----5~~4~~3~~2~~------ 
e|-0-----------------------------------------


Guitar
e|----------*12*-----*5*--------------------- 
b|-------*12*------*5*-*5*------------------- 
g|-----------------------*5*----------------- 
d|------------------------------------------- 
a|------------------------------------------- 
E|------------------------------------------- 

Bass
g|------------------------------------------- 
d|------------------------------------------- 
a|------10~~9~~8~~7~~\-----5~~4~~3~~2~~------ 
e|-0-----------------------------------------





Guitar
e|------------------------------------------- 
b|------------------------*5*---------------- 
g|----*12*----------------*5*---------------- 
d|------------------------------------------- 
a|------------------------------------------- 
E|------------------------------------------- 

Bass
g|------------------------------------------- 
d|------------------------------------------- 
a|------10~~9~~8~~7~~\-----5~~4~~3~~2~~------ 
e|-0-----------------------------------------

VERSE RIFF
The Verse Riff is actually two guitar parts: (played together)
Guitar I:
e-14b-14-12b-12-------------------
B---------------14b-14-12b-12-----
G---------------------------------
D---------------------------------
A---------------------------------
E---------------------------------

Guitar 2:
e|-------------------------------------------  
b|-------------------------------------------
g|-------------------------------------------
d|-------------------------------------------
a|------10--9--8--7\----5--4--3--2-----------
E|-0------------------0-----------------------
Jimmy Plays only Guitar 2 in the live versions. Here are some
 variations of that riff that he uses when Live. 

e|---------------------------------------------
b|---------------------------------------------
g|---------------------------------------------
d|---------------------------------------------
a|--9b(10)--9--7b(8)--7\---4b(5)--4--2b(3)--2--
E|-0---------------------0---------------------

e|---------------------------------------------
b|---------------------------------------------
g|---------------------------------------------
d|---------------------------------------------
a|--9b(10)--9--7b(8)--7\------4b(5)--4--3tr2-2-
E|-0-----------------------0-------------------

e|------------------------------------------- 
b|------------------------------------------- 
g|------------------------------------------- 
d|------------------------------------------- 
a|------14--13--12--10\----5--4--3--2-------- 
E|-0----------------------------------------- 
MAIN RIFF
e--------------------
B--------------------
G-4-4-4-----2h4------
D-4-4-4-2h4-----2h4--
A-2-2-2--------------      
E--------------------
PRE-VIOLIN BOW

e|------------------------------------------- 
b|------------------------------------------- 
g|------------------------------------------- 
d|-----------5-5-5--------------------------- 
a|-7-7-7--5--------7-------------------------
E|------------------------------------------- 
That's all there is in the studio version, but it can be extended to 
however long and the d string on the 7th fret can also be used.
Violin Bow Solo

Here, Instead of trying to tab out the studio version (an amalgam of overdubs) 
I am going to tab out most of what Page Played at Led Zeppelins performance at 
the Royal Albert Hall on January 9th 1970. You can find this on the main feature 
on disc one of their DVD. This is not exact so there are probably a lot of errors 
and there are parts which I did not tab so here goes. Forget about rhythm this is in free time.


E|---12====--10====--5===--7===--|
B|---12====--10====--5===--7===--|
G|---14====--12====--7===--9===--|
D|---14====--12====--7===--9===--|
A|---12====--10====--5===--7===--|
E|---12====--10====--5===--7===--|


E|------12/15---17\0--|------12/15-17-19-17h19p17-15-12-12/14-12/14-12\0-------
B|--------------------|--------------------------------------------------------
G|-*12*---------------|-*12*---------------------------------------------------
D|--------------------|--------------------------------------------------------
A|--------------------|--------------------------------------------------------
E|--------------------|--------------------------------------------------------

W/Delay      *       *      *     *
e|----------12------10------5-----7------------ 
b|----------12------10------5-----7------------ 
g|----------12------12------7-----9------------ 
d|----------14------12------7-----9------------ 2x
a|----------14------10------5-----7------------ 
E|----------12------10------5-----7------------  

   *   *    *  *    * *    *  *
e|------------------------------------- 
b|------------------------------------- 
g|-14--14----12--12----7--7----9--9---- 
d|-14--14----12--12----7--7----9--9---- 3x
a|-12--12----10--10----5--5----7--7---- 
E|-12--12----10--10----5--5----7--7---- 







    *  *  * *  *  *  *  *  *  *  * *      *    
e|----------------------------------------5---
b|----------------------------------------5---
g|-11-11-12-12-14-14-16-14-12-11-9-7------5---
d|-11-11-12-12-14-14-16-14-12-11-9-7------5---
a|-9--9--10-10-12-12-14-12-10-9--7-5----------
E|-9--9--10-10-12-12-14-12-10-9--7-5----------


E|------------------|--------------|-------------|
B|------------------|--------------|-------------|
G|------------------|--------------|-------------|
D|--5/9===\0----9\0-|--------------|-------------|
A|--5/9===\0----9\0-|--------------|-------------|
E|--3/7===\0----7\0-|-7\1/7\6===\0-|-1/7\6/14\13-|


                         `’`’`’`’`’`’`
E|---------------------------------------------|
B|---------------------------------------------|
G|---------------------------------------------|
D|---------------------------------------*12*--|
A|---------------------------------------*12*--|
E|-1/7\6/12\11/14\13/14/15~~~~b(17)15----------|

                    `’`’`’`’`’`
E|-------------------------------|-----------------|------------|
B|-------------------------------|-----------------|-----I------|
G|-------------------------------|-----------------|-----Missed-|
D|-------------------------------|-----------------|-something--|
A|-------------------------------|-----------------|-----here---|
E|-14h15-17-15-14-15-17b(19)17---|---17\0----17\0--|------------|


                                         ^   ^   ^     ^   ^   ^
E|--------*5*--|-----------------------|-------------|-------------|
B|--------*5*--|-----------------------|-------------|-------------|
G|-*12*---*5*--|-----------------------|-------------|-------------|
D|-*12*---*5*--|-----------------------|-------------|-------------|
A|-*12*--------|---5\0------------7\0--|-------------|-------------|
E|-*12*--------|---3\O------------5\O--|-1P0-1P0-1P0-|-3P0-3P0-3P0-|
[ Tab from: http://www.guitartabs.cc/tabs/l/led_zeppelin/dazed_and_confused_tab_ver_3.html ]
                   (JUDY JUDY JUDY!)               (Everybody…knows…)
   * * *  * * *                     * * *  * * *  * 
E|-7-7-6--7-7-6=/10========---------7-7-5--7-7-5—-3========------------|
B|-7-7-6--7-7-6=/10========---------7-7-5--7-7-5—-3========------------|
G|-7-7-6--7-7-6=/10========---------7-7-5--7-7-5—-3========------------|
D|-9-9-8--9-9-8=/12========---------9-9-7--9-9-7—-5========------------|
A|-9-9-8--9-9-8=/12========---------9-9-7--9-9-7-—5========------------|
E|-7-7-6--7-7-6=/10========---------7-7-5--7-7-5—-3========------------|
                                                                             Repeat Alot
   * * *  * * *   *  *  *  *  *  *   *  *  *   *  *  *   *  *  *   *  *  *     *  *  *
E|-7-7-5--7-7-5-------------------------------------------------------------|------------|
B|-7-7-5--7-7-5-------------------------------------------------------------|o----------o|
G|-7-7-5--7-7-5-------------------------------------------------------------|------------|
D|-9-9-7--9-9-7---12-12-11-12-12-11--14-14-12--14-14-12--16-16-14--17-17-16-|--16-17-17--|
A|-9-9-7--9-9-7---12-12-11-12-12-11--14-14-12--14-14-12--16-16-14--17-17-16-|o-16-17-17-o|
E|-7-7-5--7-7-5---10-10-9--10-10-9---12-12-10--12-12-10--14-14-12--15-15-14-|--14-15-15--|

                   ^ ^  ^ ^ (Be on my side I’ll be on yours)
E|---------------|--------------------------------------------|
B|---------------|--------------------------------------------|
G|---------------|--------------------------------------------|
D|-16\\\\\\\\\\0-|-4-4----------------------------------------|
A|-14\\\\\\\\\\0-|-2-2--2-2-----------------------------------|
E|-14\\\\\\\\\\0-|------0-0-----------------------------------|





   ^ ^    ^ ^     ^    (Ahhhhhhhhhhhhhhh)
E|---------------------------------------|
B|---------------------------------------|
G|---------------------------------------|
D|---------------------------------------|
A|-2-2----2-2-----2=======---------------|
E|-0-0----0-0-----0=======---------------|

 (Lots of Random Wah Wah here to get a “swoosh” effect)
 `’`’`’`’`’`’`’`’`’`’`’`’`’`’`’`’`’`’`’`’`’`’`’`’`’`’`’`’`’`’`’`’`’`’`’`’`’`’`’`’`’
E|----------------------------------------------------------------------------------|
B|----------------------------------------------------------------------------------|
G|----------------------------------------------------------------------------------|
D|----------------------------------------------------------------------------------|
A|3-3-3-3-3-3-3-3-3-3-3-3-3-3-3-3-3-3-3-3-3-3-3-3-3-3-3-3-3-3-3-3-3-3-3-3-3-3-3-3-3-|
E|1-1-1-1-1-1-1-1-1-1-1-1-1-1-1-1-1-1-1-1-1-1-1-1-1-1-1-1-1-1-1-1-1-1-1-1-1-1-1-1-1-|

(?) indicates just behind the neck pick up
  `’`’`’`’`’`’`’`’`’`’`’`’`’`’`’`’`’`’`’`’`’  (Very Rapidly)
E|-------------------------------------------|----------|
B|-------------------------------------------|o--------o|
G|-------------------------------------------|----------|
D|-------------------------------------------|--14/(?)--|
A|-3/////////////////////////////////////(?)-|o-14/(?)-o|
E|-1/////////////////////////////////////(?)-|--12/(?)--|

  Single sweep up with bow          `’`’`’`’`’`’`’`’`’`’`’`’`’`’`   (End Bow Solo) 
E|-----------------------|-----------|----------------------------------#########|
B|-----------------------|-----------|-------------------------------------------|
G|-----------------------|-----------|-------------------------------------------|
D|-(?)\\\\\\\\\\\\\\\\\0-|-5/7---5/7-|-3-3-3-3-3-3-3-3-3-3-3-3-3-3-/14========---|
A|-(?)\\\\\\\\\\\\\\\\\0-|-----------|-------------------------------------------|
E|-(?)\\\\\\\\\\\\\\\\\0-|-3/5---3/5-|-1-1-1-1-1-1-1-1-1-1-1-1-1-1-/12========---|


E|--------------------|
B|o------------------o|
G|--------------------|
D|-14-12======--14\0--|
A|o------------------o|
E|-12-10======--12\0--|

PRE-SOLO

E-|----------------------------------------------|-----------------------------|
B-|----------------------------------------------|15-14-12-10-8-7-5-8-7-3-2----|
G-|-------------12-14-12----------------12-14-12-|--------------------------3/-|
D-|-------12-14----------14-------12-14----------|-----------------------------|
A-|-12-14-------------------12-14----------------|-----------------------------|
E-|----------------------------------------------|-----------------------------|
SOLO
Now heres the solo. If you can master this, Holy Sh*t.
e:----------------------------------------------------------15p12----1512---|
B:---12--12-15p12--------12-15p12----------12-12-15p12-X-12-------12-------12|
G:14b16------------14b16----------14-14b16-----------------------------------|
D:---------------------------------------------------------------------------|
A:---------------------------------------------------------------------------|
E:---------------------------------------------------------------------------|


e:15p12---15p12—15p12-------12-15b17-15-12----12-----------------------------|
B:------12-----12-----12-12-12-------------15-15-15p12-----------------------|
G:-----------------------------------------------------14p12----12-14-12-14--|
D:-----------------------------------------------------------14--------------|
A:---------------------------------------------------------------------------|
E:---------------------------------------------------------------------------|


e:---------------------------------------------------------------------------|
B:--------15-----------------------------------------------------------------|
G:12-14b16----16p14p12-14p12---------------------------------!9!b!11!--9b11--|
D:--------------------------14-12-14-12h14p12----12h14p12--0-----------------|
A:--------------------------------------------14-----------------------------|
E:---------------------------------------------------------------------------|

e:---------------------------------------------------------------------------|
B:---------------------------------------------------------------------------|
G:---7-9-7-7-7\6-6\5-6-7\6-4-6\4\3-4-2-2\0-4-2\0---0-0-0b2--0-0b2-0-0b2-0-0b2|
D:---------------------------------------------------------------------------|
A:---------------------------------------------------------------------------|
E:---------------------------------------------------------------------------|

e:---------------------------------------------------------15p12-15-15b12----|
B:------------------------------------------------------12-------12-12----12-|
G:--0-0-0b4-0-0b2--0-0b4b4-0-0b2-0-0b4-0-0b3-0-0-b4r0------------------------|
D:---------------------------------------------------------------------------|
A:---------------------------------------------------------------------------|
E:---------------------------------------------------------------------------|


e:15p12----15p12----15—15p12-----15--15b17-15-17---15b17-15b17-15-12-----12-|
B:------12-------12------------12-------------------------------------15-----|
G:---------------------------------------------------------------------------|
D:---------------------------------------------------------------------------|
A:---------------------------------------------------------------------------|
E:---------------------------------------------------------------------------|



e:---------------------------------------------------------------------------|
B:15p12--------------------------15------------------------------------------|
G:-------14p12----12-14-12-14h16----16p14p12-14p12---------------------------|
D:-------------14----------------------------------14-12h14p12----12-12------|
A:-------------------------------------------------------------14----12h14p12|
E:---------------------------------------------------------------------------|

e:--------------------------------------------------------------------19b21--|
B:----------------------------17b20---17b19-17b20--17b19-15-15--17-17--------|
G:---------------------------------------------------------------------------|
D:---------------------------------------------------------------------------|
A:h14p12---------10--12-10---------------------------------------------------|
E:------------12-------------------------------------------------------------|

e:19p18--17------------------------------------------------------------------|
B:----------20-20p17----17-20—17h20p17-----17-20-17h20p17-----17-20-17h20p17-|
G:-------------------19------------------19-----------------19---------------|
D:---------------------------------------------------------------------------|
A:---------------------------------------------------------------------------|
E:---------------------------------------------------------------------------|

e:---------------------------------------------------------------------------|
B:----17-20-17h20p17----17-20-20b22--19b21-21b22-19b20-19b20b22--------20b22b|
G:-19----------------19------------------------------------------------------|
D:----------------------------------------------------------------0-0--------|
A:---------------------------------------------------------------------------|
E:---------------------------------------------------------------------------|

e:-------------------------------------19b22r19----------19b22r19------------|
B:24r20p17--17-17--20b24r20-17-17-17-17----------17-17-17----------17-17-17--|
G:---------------------------------------------------------------------------|
D:---------------------------------------------------------------------------|
A:---------------------------------------------------------------------------|
E:---------------------------------------------------------------------------|

e:---------------------------------------------------------------------------|
B:---17-20b23r20--17-17----17b20r17-15-15--15b17r15--------------------------|
G:----------------------0--17-----------------------12-12----12b14r12-9-9--9-|
D:---------------------------------------------------------------------------|
A:---------------------------------------------------------------------------|
E:---------------------------------------------------------------------------|

e:---------------------------------------------------------------------------|
B:-----------------------------------------------------4p2p0-------------!4!-|
G:----9b11-9b11r9--7--4b6r4--4—4p2p0-2—4p2p0-2—4p2p0-2—4p2p0-2--2--4--2---4--|
D:-------------0-------------------------------------------------------------|
A:---------------------------------------------------------------------------|
E:---------------------------------------------------------------------------|

e:---------------------------------------|
B:----2/4\2\0----------------------------|
G:----2/4\2\0---0—2p0h2p0h2--------------|
D:--------------------------4p2p0--------|
A:--------------------------------4p2p0--|
E:---------------------------------------|
POST-SOLO
E-|------------------------------|
B-|------------------------------|
G-|-9-9-9-9-7-----9-9-9-9-12-----|
D-|-9-9-9-9-7-7-7-9-9-9-9-12-----|
A-|-7-7-7-7-5-7-7-7-7-7-7-10-----|
E-|-----------5-5----------------|
OUTTRO

E|-----------------------------------------------------|-----------------
B|-----------------------------------------------------|----------7p6p5--
G|-----------------------------------------------------|-0-0-0-0---------
D|--5-5-5-3-7-7-7-5-10-10-10-7-11-11-11-9-14-14-14-12--|-----------------
A|-----------------------------------------------------|-----------------
E|--3-3-3-1-5-5-5-3-8--8--8--5-9--9--9--7-12-12-12-10--|-----------------
Close
E|---------------------|
B|---------------------|
G|-7-7-7---7-7-7-9-----|
D|-7-7-7---7-7-7-9-----|
A|-5-5-5---5-5-5-7-----|
E|---------------0-----|

And that’s that. This is a mixture of my work and tabs from the internet, so thanks 
to those who tabbed bits out(most notably the Solo). Speaking of the solo, if you 
find it hard, just learn little recognizable phrases and for the rest just jam on 
an E minor pentatonic. Here it is. Enjoy
Comments