Led Zeppelin - Dazed And Confused Chords & Tabs

 

Dazed And Confused Chords & Tabs

Led Zeppelin Chords & Tabs

Version: 1 Type: Tab 3 ratings
1 star 2 stars 3 stars 4 stars 5 stars
comments

Dazed And Confused Tab

Dazed & Confused in all its entirety... tabbed by matty

The Intro is done using natural harmonics. Try holding the pick close to your thumb and hitting the string.

|----12-----5----------------12------5--------------------------------------|
|-12------5---------------12-------5----------------------------------------|
|-------------12------------------------5-----------------------------------|
|---------------------------------------------------------------------------|
|---------------------------------------------------------------------------|
|---------------------------------------------------------------------------|
       ~~~~~~                   ~~~~~~
The Main Riff Of D & C         Heres the Chord riff.
                            
E-|------------------------| |-------------------------|
B-|------------------------| |-------------------------|
G-|------------------------| |-------------------------|
D-|------------------------| |------9-9-9----7-9-------|
A-|-----10-9-8-7-----------| |------9-9-9-7-9----7-9---|
E-|-0-0---------0-10-9-8-7-| |------7-7-7--------------|
                                                     
I think the bow solo is insane, and I am not including it. 
Good luck to you.

Pre Solo:
E-|----------------------------------------------|-----------------------------|
B-|----------------------------------------------|15-14-12-10-8-7-5-8-7-3-2----|
G-|-------------12-14-12----------------12-14-12-|--------------------------3/-|
D-|-------12-14----------14-------12-14----------|-----------------------------|
A-|-12-14-------------------12-14----------------|-----------------------------|
E-|----------------------------------------------|-----------------------------|


[ Tab from: http://www.guitartabs.cc/tabs/l/led_zeppelin/dazed_and_confused_tab.html ]
Now heres the solo. If you can master this, Holy Sh*t.
e:----------------------------------------------------------15\12----15\12---|
B:---12--12-15\12--------12-15\12----------12-12-15\12-X-12-------12-------12|
G:14b16------------14b16----------14-14b16-----------------------------------|
D:---------------------------------------------------------------------------|
A:---------------------------------------------------------------------------|
E:---------------------------------------------------------------------------|
e:15\12---15\12--15\12------12-15b17-15-12----12-----------------------------|
B:------12-----12-----12-12-12-------------15-15-15\12-----------------------|
G:-----------------------------------------------------14\12----12-14-12-14--|
D:-----------------------------------------------------------14--------------|
A:---------------------------------------------------------------------------|
E:---------------------------------------------------------------------------|
e:---------------------------------------------------------------------------|
B:--------15-----------------------------------------------------------------|
G:12-14b16----16\14\12-14\12---------------------------------!9!b!11!--9b11--|
D:--------------------------14-12-14-12/14\12----12/14\12--0-----------------|
A:--------------------------------------------14-----------------------------|
E:---------------------------------------------------------------------------|
e:---------------------------------------------------------------------------|
B:---------------------------------------------------------------------------|
G:---7-9-7-7-7\6-6\5-6-7\6-4-6\4\3-4-2-2\0-4-2\0---0-0-0b2--0-0b2-0-0b2-0-0b2|
D:---------------------------------------------------------------------------|
A:---------------------------------------------------------------------------|
E:---------------------------------------------------------------------------|
e:---------------------------------------------------------15\12-15-15b12----|
B:------------------------------------------------------12-------12-12----12-|
G:--0-0-0b4-0-0b2--0-0b4b4-0-0b2-0-0b4-0-0b3-0-0-b4r0------------------------|
D:---------------------------------------------------------------------------|
A:---------------------------------------------------------------------------|
E:---------------------------------------------------------------------------|
e:15\12----15\12----15--15\12-----15--15b17-15-17---15b17-15b17-15-12-----12-|
B:------12-------12------------12-------------------------------------15-----|
G:---------------------------------------------------------------------------|
D:---------------------------------------------------------------------------|
A:---------------------------------------------------------------------------|
E:---------------------------------------------------------------------------|
e:---------------------------------------------------------------------------|
B:15\12--------------------------15------------------------------------------|
G:-------14\12----12-14-12-14/16----16\14\12-14\12---------------------------|
D:-------------14----------------------------------14-12/14\12----12-12------|
A:-------------------------------------------------------------14----12/14\12|
E:---------------------------------------------------------------------------|
e:--------------------------------------------------------------------19b21--|
B:----------------------------17b20---17b19-17b20--17b19-15-15--17-17--------|
G:---------------------------------------------------------------------------|
D:---------------------------------------------------------------------------|
A:/14\12---------10--12-10---------------------------------------------------|
E:------------12-------------------------------------------------------------|
e:19\18--17------------------------------------------------------------------|
B:----------20-20\17----17-20--17/20\17-----17-20-17/20\17-----17-20-17/20\17|
G:-------------------19------------------19-----------------19---------------|
D:---------------------------------------------------------------------------|
A:---------------------------------------------------------------------------|
E:---------------------------------------------------------------------------|
e:---------------------------------------------------------------------------|
B:----17-20-17/20\17----17-20-20b22--19b21-21b22-19b20-19b20b22--------20b22b|
G:-19----------------19------------------------------------------------------|
D:----------------------------------------------------------------0-0--------|
A:---------------------------------------------------------------------------|
E:---------------------------------------------------------------------------|
e:-------------------------------------19b22r19----------19b22r19------------|
B:24r20\17--17-17--20b24r20-17-17-17-17----------17-17-17----------17-17-17--|
G:---------------------------------------------------------------------------|
D:---------------------------------------------------------------------------|
A:---------------------------------------------------------------------------|
E:---------------------------------------------------------------------------|
e:---------------------------------------------------------------------------|
B:---17-20b23r20--17-17----17b20r17-15-15--15b17r15--------------------------|
G:----------------------0--17-----------------------12-12----12b14r12-9-9--9-|
D:---------------------------------------------------------------------------|
A:---------------------------------------------------------------------------|
E:---------------------------------------------------------------------------|
e:---------------------------------------------------------------------------|
B:-----------------------------------------------------4\2\0-------------!4!-|
G:9b11-9b11r9--7--4b6r4--4--4\2\0-2--4\2\0-2--4\2\0-2--4\2\0-2--2--4--2---4--|
D:-------------0-------------------------------------------------------------|
A:---------------------------------------------------------------------------|
E:---------------------------------------------------------------------------|
e:---------------------------------------|
B:----2/4\2\0----------------------------|
G:----2/4\2\0--0--2\0/2\0/2--------------|
D:--------------------------4\2\0--------|
A:--------------------------------4\2\0--|
E:---------------------------------------|

    Chords played after the solo
                                                         
E-|------------------------------|
B-|------------------------------|
G-|-9-9-9-9-7-----9-9-9-9-12-----|
D-|-9-9-9-9-7-7-7-9-9-9-9-12-----|
A-|-7-7-7-7-5-7-7-7-7-7-7-10-----|
E-|-----------5-5----------------|


Coda                                                          Repeat
        
E-|-------------------------------------------------------|-----------------|
B-|-------------------------------------------------------|----------7p6p5--|
G-|-------------------------------------------------------|-0-0-0-0---------|
D-|-5-5-5-3-7-7-7-5-9-9-9-7-11-11-11-9-14-14-14-14-14-12--|-----------------|
A-|-------------------------------------------------------|-----------------|
E-|-3-3-3-1-5-5-5-3-7-7-7-5--9--9--9-7-12-12-12-12-12-10--|-----------------|
                                                                             

And end it off with 
     x7
E-|--------|-----------------|
B-|--------|-----------------|
G-|-7-7-7--|-----7-7-7-9-----|
D-|-7-7-7--|-----7-7-7-9-----|
A-|-5-5-5--|-----5-5-5-7-----|
E-|--------|-----------0-----|
 
R.I.P. John 'Bonzo" Bonham.









Comments