Led Zeppelin - Dazed And Confused Chords & Tabs

 

Dazed And Confused Chords & Tabs

Led Zeppelin Chords & Tabs

Version: 1 Type: Bass Tab 0 ratings
1 star 2 stars 3 stars 4 stars 5 stars
comments

Dazed And Confused Bass Tab

Dazed and Confused - Led Zeppelin

Studio Version

~ = vibrato
h = hammer on
p = pull off

    ~~~~~~~~~~~     ~~~~~~~~~~    
G|-----------------------------|
D|-----------------------------|
A|--10--9--8--7----5--4--3--2--|
E|0--------------0-------------|

Replace that final 2 on the A string with two 0's on the E string on the fourth run through.

Later, that 2 will be replaced by this

  (x4)
G|---------2h4---|
D|------2h4---2h4|
A|2-2-2----------|
E|---------------|

SOLO
                   randomly play any of these for a while
G|----------------|--------------------------------|
D|--------5555----|5555----9999--------------------|
A|77775-------7---|----7-------7---55555---77775---|
E|----------------|--------------------------------|
[ Tab from: http://www.guitartabs.cc/tabs/l/led_zeppelin/dazed_and_confused_btab.html ]
At about 3:00 he plays:
G|7-------9-------7-------9-9---------------------9-9-------7-------------------------------
D|-757-----979-----757---9-9--7---5---7-7--------9-9--7---5--757----33333---33333---33333---
A|----5-------7-------7-7-------7----7-7--5---3-7-------7-------7---------------------------
E|----------------------------------5-------5-----------------------------------------------

-------------|
33333---2----|
-------------|
-------------|
 
Then play this riff about 60 times for the heavy sounding solo part
G|-----------|
D|------5h7p5|
A|---5h7-----|
E|5h7--------|

end the solo this way:
   (x3)               (x4)
G|--------------0---|---------2h4---|
D|2---0-----2-------|------2h4---2h4|
A|------0-----------|2-2-2----------|
E|------------------|---------------|

return to the verse riff

  outro
G|------------------------7777----99997-------9-7\--------9-7\--------9-7\--------------
D|--------77775---99997-------9---------------------------------------------------------
A|77775-----------------------------------5---------7-5---------7--7--------55555-55555-
E|--------------------------------------------------------------------------------------

---------------------------------|
---------------------------------|
55555-55555-55555-55555-55557----|
---------------------------------|

tabbed by Achilles (blue_sincere@hotmail.com)

Comments