Led Zeppelin - Custard Pie Chords & Tabs

 

Custard Pie Chords & Tabs

Led Zeppelin Chords & Tabs

Version: 3 Type: Tab 0 ratings
1 star 2 stars 3 stars 4 stars 5 stars
comments

Custard Pie Tab

	Led Zeppelin
	"Custard Pie"
	Physical Graffiti
	Swan Song, 1975
	Updated May 16, 2004


EADGBE Tuning
4x4 Timing
16th Notes


Riff 1
======
1:---------------------------------|
2:-2-------------------2-----2-----|
3:-2-------------------2-----2-----|
4:-2-2-2-4-2-4-5-------2-----2-----|
5:-0-0-0-0-0-0-0-------0-----0-----|
6:-------------------------3-------|

1:---------------------------------|
2:-2-------------------2-----2-----|
3:-2-------------------2-----2-----|
4:-2-2-2-4-2-4-5-------2-----2-----|
5:-0-0-0-0-0-0-0-------0-----0-----|
6:-------------------------3-------|


Riff 2
======
1:---------------------------------|
2:---------------------------------|
3:-7-------------------------------|
4:-7-------------------------------|
5:-5-------------------------------|
6:---------------------------------|
[ Tab from: http://www.guitartabs.cc/tabs/l/led_zeppelin/custard_pie_tab_ver_3.html ]
1:---------------------------------|
2:---------------------------------|
3:---7-6-5-----------5-4-3---------|
4:---7-6-5-----------5-4-3---------|
5:---5-4-3-----------3-2-1---------|
6:---------------------------------|


Riff 3
======

1:---------------------------------|
2:-5---------------------------6---|
3:-4---------------------------7---|
4:-2---------------------------5---|
5:-0---------------------------0---|
6:---------------------------------|

1:---------------------------------|
2:---------------------------------|
3:---------------------------------|
4:---------------------3-------5---|
5:---------------------3-------5---|
6:---------------------1-------3---|


SONG STRUCTURE
==============
Intro
	Riff 1	x2
Verse 1
	Riff 1 x2
	Riff 2
	Riff 1
	Riff 3
	Riff 1
Verse 2
	Riff 1 x2
	Riff 2
	Riff 1
	Riff 3
	Riff 1
Verse 3
	Riff 1 x2
	Riff 2
	Riff 1
	Riff 3
Guitar Solo
	Riff 1 x3
	Riff 2
	Riff 1
	Riff 3
	Riff 1
Verse 4
	Riff 1 x2
	Riff 2
	Riff 1
	Riff 3
	Riff 1
Ending
	Riff 1 until end
Comments