Led Zeppelin - Custard Pie Chords & Tabs

 

Custard Pie Chords & Tabs

Led Zeppelin Chords & Tabs

Version: 3 Type: Bass Tab 0 ratings
1 star 2 stars 3 stars 4 stars 5 stars
comments

Custard Pie Bass Tab

   
	Led Zeppelin
	"Custard Pie"
	Physical Graffiti
	Swan Song, 1975
	Updated May 16, 2004


DADG Tuning
4x4 Timing
16th Notes


Riff 1
======
1:---------------------------------|
2:---------------------7---5-7-----|
3:---------------------------------|
4:-5-----5-----5-------------------|


Riff 1-A
========
1:---------------------------------|
2:---------------------7---5-7-----|
3:-----------------------------3-4-|
4:-5-----5-----5-------------------|


Riff 1-B
========
1:---------------------------------|
2:---------------------7---5-7-----|
3:-----------------------------5-6-|
4:-5-----5-----5-------------------|


Riff 1-C
========
1:---------------------------------|
2:---------------------7---5-7-6-7-|
3:---------------------------------|
4:-5-----5-----5-------------------|


Riff 1-D
========
1:---------------------------------|
2:---------------------7---5-7-----|
3:---------------------------------|
4:-5-----5-----5---------------5---|


Riff 1-E
========
1:---------------------------------|
2:---------------------7---5-7-----|
3:-----------------------------7-6-|
4:-5-----5-----5-------------------|


Riff 1-F
========
1:---------------------------------|
2:---------------------7---5-5-5-6-|
3:---------------------------------|
4:-5-----5-----5-------------------|


Riff 1-G
========
1:---------------------------------|
2:---------------------7---5-7-5-7-|
3:---------------------------------|
4:-5-----5-----5-------------------|


Riff 1-H
========
1:---------------------------------|
2:---------------------7---5-7-----|
3:---------------------------------|
4:-5-----5-----5---------------1-3-|


Riff 1-I
========
1:---------------------------------|
2:---------------------------------|
3:---------------------------------|
4:-5-----5-----5-----0-1---0-1-2-3-|

[ Tab from: http://www.guitartabs.cc/tabs/l/led_zeppelin/custard_pie_btab_ver_3.html ]
Riff 1-J
========
1:---------------------------------|
2:---------------------------------|
3:---------------------------------|
4:-5-----5-----5-----0-1-0-1-2-3-4-|


Riff 2
======
1:---------------------------------|
2:---------------------------------|
3:-5-------------------------------|
4:---------------------------------|

1:---------------------------------|
2:---------------------------------|
3:---5-4-3-----------3-2-1---------|
4:---------------------------------|


Riff 3
======
1:---------------------------------|
2:-----------------------------5---|
3:-7-------------------------------|
4:---------------------------------|

1:---------------------------------|
2:---------------------------------|
3:---------------------------------|
4:---------------------1-------3---|


Riff 3-A
========
1:---------------------------------|
2:---------------------------------|
3:-7-------------------------------|
4:-----------------------------3---|

1:---------------------------------|
2:---------------------------------|
3:---------------------------------|
4:---------------------1-------3---|


SONG STRUCTURE
==============
Intro
	Wait 8 measures
Verse 1
	Riff 1 x3
	Riff 1-A
	Riff 2
	Riff 1
	Riff 1-B
	Riff 3
	Riff 1
	Riff 1-C
Verse 2
	Riff 1 x3
	Riff 1-A
	Riff 2
	Riff 1
	Riff 1-B
	Riff 3
	Riff 1
	Riff 1-D
Verse 3
	Riff 1 x3
	Riff 1-A
	Riff 2
	Riff 1
	Riff 1-B
	Riff 3
Guitar Solo
	Riff 1
	Riff 1-C
	Riff 1 x3
	Riff 1-E
	Riff 2
	Riff 1
	Riff 1-B
	Riff 3-A
	Riff 1
	Riff 1-F
Verse 4
	Riff 1 x3
	Riff 1-A
	Riff 2
	Riff 1
	Riff 1-B
	Riff 3
	Riff 1
	Riff 1-G
Ending
	Riff 1
	Riff 1-G
	Riff 1
	Riff 1-G
	Riff 1
	Riff 1-H
	Riff 1
	Riff 1-C
	Riff 1
	Riff 1-G
	Riff 1
	Riff 1-I
	Riff 1
	Riff 1-C
	Riff 1 x3
	Riff 1-H
	Riff 1
	Riff 1-B
	Riff 1
	Riff 1-C
	Riff 1
	Riff 1-B
	Riff 1
	Riff 1-B
	Riff 1...
Comments