Led Zeppelin - Custard Pie Chords & Tabs

 

Custard Pie Chords & Tabs

Led Zeppelin Chords & Tabs

Version: 1 Type: Bass Tab 0 ratings
1 star 2 stars 3 stars 4 stars 5 stars
comments

Custard Pie Bass Tab

   
Date: Fri, 13 Dec 1996 00:24:19 -0500
From: Smiley2545@aol.com
Subject: BTAB: Custard pie by Led Zeppelin

Custard Pie by Led Zeppelin
transcribed by Adam Sorini      

part 1. intro

      h
G|-------------------|-------------|
D|--------2---757-|-------------|
A|--3^4----4-------|----rest-----|
E|--------------------|-------------|


part 2. main riff
[ Tab from: http://www.guitartabs.cc/tabs/l/led_zeppelin/custard_pie_btab.html ]
G|--------------------|-----------------------|      
D|-----------757----|------------2---757-|
A|--------------------|-------3^4---4-------|
E|--5--5--5---------|-5--5-----------------|

part 3. post main riff I

G|--------------|----------------------|
D|--------------|----------------------|
A|--5-----------|----5-4-3--3-2-1-|
E|--------------|----------------------|

part 4. post main riff II

G|--------------|-----------------|
D|--------------|--5--------------|
A|--7-----------|-----------------|
E|--------------|-----------1---3-|


Song structure: part: 1,1,2,2,3,2,2,2,2,4,2,2,2,2,3,2,2,2,2,4,...etc



Comments