Led Zeppelin - Communications Breakdown Live Chords & Tabs

 

Communications Breakdown Live Chords & Tabs

Led Zeppelin Chords & Tabs

Version: 1 Type: Tab 0 ratings
1 star 2 stars 3 stars 4 stars 5 stars
comments

Communications Breakdown Live Tab

   
This is the Communication Breakdown they play on the Extras of their DVD when they were doing the studio show 

Communication Breakdown(live) 
Led Zeppelin 
Tabbed by Daniel Lombardi 

Standard Tuning 
Main Riff 
E|-------------------|----------------|-------------------|----------------| 
B|-------------------|----------------|-------------------|----------------| 
G|-------------------|--7---------7---|-------------------|--7---------7---| 
D|-------------------|--7---------7---|-------------------|--7---------7---| 
A|-------------------|--5-----6---5---|-------------------|--5-----6---5---| 
E|0-0-0-0-0-0-0-0----|0-------5-------|0-0-0-0-0-0-0-0----|0-------5-------| 6X 

E|------------------|-------------------|------------------|-------------------| 
B|------------------|-------------------|------------------|-------------------| 
G|------------------|-------------------|------------------|-------------------| 
D|------------------|-------------------|------------------|-------------------| 
A|7-7-9-7-7-9---6---|--7-9-7-7-9---6----|---7-9-7-7-9--6---|--7-9-7-7-7-9-7----| 
E|5-5-5-5-5-5---5---|--5-5-5-5-5---5----|---5-5-5-5-5--5---|--5-5-5-5-5-5-5----| 

E|-------------------7-|-------------------7-|------------------7-|----------------| 
B|-------------------7-|-------------------7-|------------------7-|----------------| 
G|-------------------8-|-------------------8-|------------------8-|----------------| 
D|-------------------7-|-------------------7-|------------------7-|----------------| 
A|9-9-11--9-9-9-11-9---|-9-11-9-9-9-11--9----|-9-11-9-9-9-11-9----|-9-119-9-9-11---| 
E|7-7-7---7-7-7-7--7---|-7-7--7-7-7-7---7----|-7-7--7-7-7-7--7----|-7-7-7-7-7-7-0--| 

E|-------------------|----------------|-------------------|----------------| 
B|-------------------|----------------|-------------------|----------------| 
G|-------------------|--7---------7---|-------------------|--7---------7---| 
D|-------------------|--7---------7---|-------------------|--7---------7---| 
A|-------------------|--5-----6---5---|-------------------|--5-----6---5---| 
E|-0-0-0-0-0-0-0-0---|0-------5-------|0-0-0-0-0-0-0-0----|0-------5-------| 5X 

E|----------------|----------------|----------------|----------------| 
B|----------------|----------------|----------------|----------------| 
G|----------------|----------------|----------------|----------------| 
D|----------------|----------------|----------------|----------------| 
A|7-7-9-7-7-9---7-|--7-9-7-7-9---7-|---7-9-7-7-9--7-|--7-9-7-7-7-9-7-| 
E|5-5-5-5-5-5---5-|--5-5-5-5-5---5-|---5-5-5-5-5--5-|--5-5-5-5-5-5-5-| 

E|------------------|------------------|------------------|------------------| 
B|------------------|------------------|------------------|------------------| 
G|------------------|------------------|------------------|------------------| 
D|------------------|------------------|------------------|------------------| 
A|9-9-11-9-9-9-11-9-|--9-11-9-9-9-11-9-|--9-11-9-9-9-11-9-|--9-11-9-9-----5-7| 
E|7-7-7--7-7-7-7--7-|--7-7--7-7-7-7--7-|--7-7--7-7-7-7--7-|--7-7--7-7-----5-7| 

Rhythm part under Guitar Solo 
E|----------------|----------------||----------------|---------------| 
B|9---------------|----------------||----------------|---------------| 
G|9---------------|----------------||9-9-9-9-9-9-9-9-|--7--------7---| 
D|9---------------|----------------||9-9-9-9-9-9-9-9-|--7--------7---| 
A|7---------------|----------------||7-7-7-7-7-7-7-7-|--5----6---5---| 
E|7---------------|----------------||0-0-0-0-0-0-0-0-|-------5-------| 7X 

Rhythm part under Outro Guitar part 
E|----------------|----------------|----------------|----------------| 
B|----------------|----------------|----------------|----------------| 
G|----------------|----------------|----------------|----------------| 
D|----------------|----------------|----------------|----------------| 
A|7-7-9-7-7-9---7-|--7-9-7-7-9---7-|---7-9-7-7-9--7-|--7-9-7-7-7-9-7-| 
E|5-5-5-5-5-5---5-|--5-5-5-5-5---5-|---5-5-5-5-5--5-|--5-5-5-5-5-5-5-| 

E|------------------|------------------|------------------|------------------| 
B|------------------|------------------|------------------|------------------| 
G|------------------|------------------|------------------|------------------| 
D|------------------|------------------|------------------|------------------| 
A|9-9-11-9-9-9-11-9-|--9-11-9-9-9-11-9-|--9-11-9-9-9-11-9-|--9-11-9-9-9-11---| 
E|7-7-7--7-7-7-7--7-|--7-7--7-7-7-7--7-|--7-7--7-7-7-7--7-|--7-7--7-7-7-7--0-| 
[ Tab from: http://www.guitartabs.cc/tabs/l/led_zeppelin/communications_breakdown_live_tab.html ]
E|-------------------|----------------|----------------|----------------| 
B|-------------------|----------------|----------------|----------------| 
G|-------------------|--7---------7---|----------------|--7---------7---| 
D|-------------------|--7---------7---|----------------|--7---------7---| 6X 
A|-------------------|--5-----6---5---|----------------|--5-----6---5---| then 
E|0-0-0-0-0-0-0-0-0--|--------5-------|0-0-0-0-0-0-0-0-|0-------5-------| fade 

Guitar Solo 
E|---12---------------14--------------------------------12------------- 
B|12----15-12-12------12-15-12-12-12-12-12-15-12-12--12----15-12-12---- 
G|16------------14-16--------------------------------14-------------14-
D|--------------------------------------------------------------------- 
A|--------------------------------------------------------------------- 
E|--------------------------------------------------------------------- 

E|---------------------------12--------12------------------------------- 
B|12-12-15----12-12-15-12-12---12----12------------------------------12- 
G|---------14-----------------------------14-12--14-13--------12-15----- 
D|---------------------------------------------14-----14-12-14---------- 
A|---------------------------------------------------------------------- 
E|---------------------------------------------------------------------- 

/---3--\/---3---\ 
E|12----12----12---12---17---15---12----12----------12-------------------- 
B|---15----15------------------------15----------12----------------------- 
G|-----------------------------------------14-16---------16-14-12----14-12 
D|----------------------------------------------------------------14------ 
A|------------------------------------------------------------------------ 
E|------------------------------------------------------------------------ 

E|-----9----9----9------------------------------------------------------- 
B|---9-9-12-9-12-9------------------------------9---------------10------- 
G|-----------------12-11-9-11-11-9----9-9-11-12---11-9---11-9-9---------- 
D|12-------------------------------11------------------11---------------- 
A|----------------------------------------------------------------------- 
E|----------------------------------------------------------------------- 

E|---10------10-------------------------------9-9-7-7-0----------------- 
B|12-12---12----12-10-8---10-8----------------9-9-7-7-0----------------- 
G|----------------------9------9-8-9----------9-9-7-7-0----------------- 
D|---------------------------------------------------------------------- 
A|---------------------------------------------------------------------- 
E|-----------------------------------12---0----------------------------- 

Outro Guitar solo 
E|------------------------------------------------------------------------ 
B|9-9-9-10-10-10-11-11-12-12-13-13-14-14-15-15-16-16-17-17-20-17-17-17-17- 
G|------------------------------------------------------------------------ 
D|------------------------------------------------------------------------ 
A|------------------------------------------------------------------------ 
E|------------------------------------------------------------------------ 

E|--------------------------19-22-------19-18-17---------------------- 
B|17-17-22---22-20-17----17----------------------20-19-17------------- 
G|--------------------19-----------------------------------18-17-21--- 
D|-------------------------------------------------------------------- 
A|-------------------------------------------------------------------- 
E|-------------------------------------------------------------------- 

E|---19----------------------24---24---------------------------------- 
B|------19-17--17-17-19-17-------------------------------------------- 
G|-----------18------------------------------------------------------- 
D|-------------------------------------------------------------------- 
A|-------------------------------------------------------------------- 
E|-------------------------------------------------------------------- 

Second outro solo at 02:18 /---3---\ 
E|---------------------------------------------------------------------------- 
B|12-----12---12---12-------14-12----------------------20-------------20------ 
G|-------------------14-12--14-12----------12----19-21----2-11-9-19-21--21-19- 
D|------------------------14------14-12-14-0---------------------------------- 
A|---------------------------------------------------------------------------- 
E|---------------------------------------------------------------------------- 

E|0-15-17------------------------------------------------------------- 
B|------------------24-----------22---24-23-20-22-23--21-22-----------
G|-------------------------------------------------------------------- 
D|-------------------------------------------------------------------- 
A|-------------------------------------------------------------------- 
E|-------------------------------------------------------------------- 

/--3-\ /--3-\ fade out 
E|-----17--------------------------------------- 
B|--20-------17-20-17--17-20-17--17-------------
G|--------19---------19--------19---------------
D|---------------------------------------------- 
A|---------------------------------------------- 
E|----------------------------------------------
Comments