Led Zeppelin - Communication Breakdown Chords & Tabs

 

Communication Breakdown Chords & Tabs

Led Zeppelin Chords & Tabs

Version: 1 Type: Tab 6 ratings
1 star 2 stars 3 stars 4 stars 5 stars
comments

Communication Breakdown Tab

   
COMMUNICATION BREAKDOWN (bbc sessions)

E|----------------|----------------|----------------|----------------|
B|----------------|--7---------7---|----------------|--7---------7---|
G|----------------|--7----9----7---|----------------|--7----9----7---|
D|----------------|--7----7----7---|----------------|--7----7----7---|
A|----------------|-------0--------|----------------|-------0--------|
E|0-0-0-0-0-0-0-0-|0---------------|0-0-0-0-0-0-0-0-|0---------------| 

E|--------------------------------|
B|--------------------------------|
G|------------8---------6-------8-|
D|------------7---------5-------7-|
A|7-7-7-7-7-9-9-9-9-9-7-7-7-7-7-9-|
E|5-5-5-5-5-7-7-7-7-7-5-5-5-5-5-7-|

E|----------------|----------------|----------------|----------------|
B|----------------|--7---------7---|----------------|--7----5----7---|
G|----------------|--7----9----7---|----------------|--7----9----7---|
D|----------------|--7----7----7---|----------------|--7----7----7---|
A|----------------|-------0--------|----------------|-------0--------|
E|0-0-0-0-0-0-0-0-|0---------------|0-0-0-0-0-0-0-0-|0---------------|

E|----------------------------------|
B|----------------------------------|
G|------------10-------8---------10-|
D|-------------9-------7----------9-|
A|9-9-9-9-9-1111111111-9-9-9-9-9-11-|
E|7-7-7-7-7--9-9-9-9-9-7-7-7-7-7--9-|
[ Tab from: http://www.guitartabs.cc/tabs/l/led_zeppelin/communication_breakdown_tab.html ]
Solo
E|-----12----------12----------12----------12----------12----------12------
B|---12--15/12---12--15/12---12--15/12---12--15/12---12--15/12---12--15/12-
G|--14^---------14^---------14^---------14^---------14^---------14^--------
D|-------------------------------------------------------------------------
A|-------------------------------------------------------------------------
E|-------------------------------------------------------------------------

E|--------------------------------------------12----12-12-15^-15-12----12--
B|-----12----------------------------------12----15-----------------15-----
G|-----------------14------14-12-14----------------------------------------
D|-------------------------------------------------------------------------
A|-------------------------------------------------------------------------
E|-------------------------------------------------------------------------
                                                      
E|------------12-------------------------9----9----9-----------------------
B|---------12--------------------------9-9-12-9-12-9---------------------9-
G|-14^-14^-------14^-14-12----14-12------------------11^-11-9----9-9-11^---
D|-------------------------14-------12------------------------11-----------
A|-------------------------------------------------------------------------
E|-------------------------------------------------------------------------

E|---------------------10------10----------------------------7/9-9-9/7-7-0--
B|-----------------10^-10^-10^----10^-10-8---10-8------------7/9-9-9/7-7-0--
G|-11^-11-9----9-9-------------------------9------9-8-9------7/9-9-9/7-7-0--
D|----------11--------------------------------------------------------------
A|--------------------------------------------------------------------------
E|------------------------------------------------------12-0----------------

 Tabbed by Julian Hughes. If you know the 1st and 2nd outro solo to this send
 to me at (therealbodycount@hotmail.com) any ive got so far i wrong.
Comments