Led Zeppelin - Communication Breakdown Chords & Tabs

 

Communication Breakdown Chords & Tabs

Led Zeppelin Chords & Tabs

Version: 4 Type: Bass Tab 0 ratings
1 star 2 stars 3 stars 4 stars 5 stars
comments

Communication Breakdown Bass Tab

-----------------------------------------------------------------------------
		COMMUNICATION BREAKDOWN- Led Zeppelin
-----------------------------------------------------------------------------

Tabbed By : Thayer
e-mail: livewire2690@comcast.net

Tuning: Standard

Intro and main riff:

G|-------------------------------|
D|-------------------------------|
A|-7-7-7-7-7-7-7-7-7-----5-----5-|
E|--------------------------5----|

==========================================================

Chorus:
[ Tab from: http://www.guitartabs.cc/tabs/l/led_zeppelin/communication_breakdown_btab_ver_4.html ]
G|---------------2-2-2-2---------------------2-----------|
D|-----------2-4---------4-2-------------2-4---4-2-------|
A|-0-0-0-3-4-----------------4-0-0-0-3-4-----------4-2-0-|
E|-------------------------------------------------------|

G|---------4-2---------------2-4---2---------------------|
D|-------------4---2---3---4---------4--1-2--------------|
A|-2-2-2-2-------2--------------------------2--2-2--2-2--|
E|-------------------------------------------------------|

==========================================================

During the solo:

G|----------------------------|
D|----------------------------|
A|-7---5-6-7---5-6-7----5---5-|
E|---7-------7------------5---|

==========================================================
Comments