Led Zeppelin - Celebration Day Chords & Tabs

 

Celebration Day Chords & Tabs

Led Zeppelin Chords & Tabs

Version: 1 Type: Bass Tab 0 ratings
1 star 2 stars 3 stars 4 stars 5 stars
comments

Celebration Day Bass Tab

Celebration Day - Led Zeppelin


G|----------------|----------------|----------------|----------------|
D|----------------|----------------|----------------|----------------|
A|----------------|----------------|----------------|----------------|
E|--5-5-5---5-545-|--5-5-5---5---5-|--5-5-5---5-545-|--5-5-5--12-4-4-|                                    

G|----------------|----------------|----------------|----------------|
D|----------------|----------------|----------------|----------------|
A|----------------|----------------|----------------|----------------|
E|--5-5-5---5-545-|--5-5-5---5-545-|--5-5-5---5-545-|--5-5-5--55-5-3-|

G|----------------|----------------|----------------|----------------||
D|----------------|----------------|----------------|----------------||
A|----------------|----------------|----------------|------------0012||
E|--5-5-5-------5-|--5-5-5---5-5-4-|--5-5-5---5-545-|--5-5-5--02-----||

G|----------------|----------------|----------------|----------223344|
D|--------2-3-4-5-|--5-5-----------|----------0-1-3-|--3-3-333-------|
A|3---3--3--------|-------02-23-31-|--1-1--11-------|----------------|
E|----------------|----------------|----------------|----------------|

G|5---5-0---------|----------------|----------------|----------------||
D|----------2-3-5-|--5-5--552------|-----------1-12-|33-3-3-322-2-2--||
A|--------3-------|----------52--1-|--1-1--11-5-----|----------------||
E|----------------|------------3---|----------------|---------------0||

G|----------------|----------------|----------------|----------------|
D|--------7-------|--------2-------|----------------|----------------|
A|0-0-0-0---0---0-|--0---0---0---0-|0-0---0---0---0-|--0-0-----0-300-|
E|----------------|----------------|-------------3--|-----33-3-------|

G|----------------|----------------|----------------|----------------|
D|----------------|----------------|----------------|----------------|
A|----------------|----------------|----------------|----------------|
E|--5-5-5---5-545-|--5-5-5---5---5-|--5-5-5---5-545-|--5-5-5--12-4-4-|

G|----------------|----------------|----------------|----------------|
D|----------------|----------------|----------------|----------------|
A|----------------|----------------|----------------|----------------|
E|--5-5-5---5-545-|--5-5-5---5-545-|--5-5-5---5-545-|--5-5-5--55-5-3-|

G|----------------|----------------|----------------|----------------||
D|----------------|----------------|----------------|----------------||
A|----------------|----------------|----------------|------------0012||
E|--5-5-5-------5-|--5-5-5---5-5-4-|--5-5-5---5-545-|--5-5-5--02-----||
[ Tab from: http://www.guitartabs.cc/tabs/l/led_zeppelin/celebration_day_btab.html ]
G|----------------|----------------|----------------|----------223344|
D|--------2-3-4-5-|--5-5-----------|----------0-1-3-|--3-3-333-------|
A|3---3--3--------|-------02-23-31-|--1-1--11-------|----------------|
E|----------------|----------------|----------------|----------------|

G|5---5-0---------|----------------|----------------|----------------||
D|----------2-3-5-|--5-5--552------|-----------1-12-|33-3-3-322-2-2--||
A|--------3-------|----------52--1-|--1-1--11-5-----|----------------||
E|----------------|------------3---|----------------|---------------0||

  Guitar Solo
G|----------------|----------------|----------------|--------22223344|
D|----------------|----------0-2-3-|--3-------0-1-3-|--3-3-3---------|
A|3---3-----------|--2-2-3-3-------|----1---1-------|----------------|
E|--------0-1-2-3-|3---------------|----------------|----------------|

G|5---------------|----------------|----------------|----------------|
D|--5-------2-3-5-|--5-------------|------------0-1-|33-3-3-122-2-2--|
A|----3--33-------|----2--23-5-1-1-|--1-1---1-1-----|---------------0|
E|----------------|----------------|----------------|----------------|

G|----------------|----------------|----------------|----------------|
D|--------7-------|--------2-------|----------------|----------------|
A|0-0-0-0---0---0-|--0---0---0---0-|0-0---0---0---0-|--0-0-----0-300-|
E|----------------|----------------|-------------3--|-----33-3-------|

G|----------------|----------------|----------------|----------------|
D|----------------|----------------|----------------|----------------|
A|----------------|----------------|----------------|----------------|
E|--5-5-5---5-545-|--5-5-5---5---5-|--5-5-5---5-545-|--5-5-5--12-4-4-|

G|----------------|----------------|----------------|----------------|
D|----------------|----------------|----------------|----------------|
A|----------------|----------------|----------------|----------------|
E|--5-5-5---5-545-|--5-5-5---5-545-|--5-5-5---5-545-|--5-5-5--55-5-3-|

G|----------------|----------------|----------------|----------------||
D|----------------|----------------|----------------|----------------||
A|----------------|----------------|----------------|------------0012||
E|--5-5-5-------5-|--5-5-5---5-5-4-|--5-5-5---5-545-|--5-5-5--02-----||

G|----------------|----------------|----------------|----------------|
D|----------------|------------75--|----------------|----------------|
A|--0-0-0---0---0-|--0---0---0---7-|0-0---0---0---0-|--0-0-00003-0---|
E|----------------|----------------|-------------3--|-------------33-|

G|----------------|----------------|----------------|----------------|
D|----------------|----------------|--------7-------|------------0-02|
A|--0-0-0---0---0-|--0---0---0-0---|--0---0---0-30--|--0---0-004--0--|
E|----------------|--------------3-|--------------3-|----------------| Repeat and fade



Comments