Led Zeppelin - Bron Yr Aur Chords & Tabs

 

Bron Yr Aur Chords & Tabs

Led Zeppelin Chords & Tabs

Version: 3 Type: Tab 9 ratings
1 star 2 stars 3 stars 4 stars 5 stars
comments

Bron Yr Aur Tab

   
Bron-Yr-Aur
Physical Graffiti
Led Zeppelin

This is one of my all time favorite instrumental pieces and Page plays it beautifully. I have seen 
other transcriptions that involve downtuning and weird finger patterns, but I have the easiest and 
most correct way to play it right here in standard tuning. First off, I would recommend a 12-string
acoustic( I have a Washburn) and someplace to concentrate.Remember to play it at a moderately fast 
tempo. Its just a bunch of arpeggios. Here goes.


    Play 4x                                            Play 2x
            C          G/B             C               G7/D            C
e-------0------------]]-------3-0-----------------------1-----0-------------------------]]
B---------------1----]]-3---------3-----------1-------1---0-----0-------------1-------1-]]
G-----0-------0------]]---0---------0-------0-------0-------0-----0---------0-------0---]]
D---2-------2--------]]-----0---------0---2-------2-----------------0-----2-------2-----]]
A-3-------3----------]]-2---------------3-------3-------2-------------2-3-------3-------]]
E--------------------]]-----------------------------------------------------------------]]

	Play 2x  
  Fsus2           C                 G/B             C               G7/D            C
e---------------0-----------------]------3-0-----------------------1-----0------------------------] 
B-------1---------------1-------1-]3---------3-----------1-------1---0-----0-------------1-------1]
G-----0-------0-------0-------0---]--0---------0-------0-------0-------0-----0---------0-------0--]
D---3-------3-------2-------2-----]----0---------0---2-------2-----------------0-----2-------2----]
A-3-------3-------3-------3-------]2---------------3-------3-------2-------------2-3-------3------]
E---------------------------------]---------------------------------------------------------------]

         Play 2x
  C       G/B     Am                C       G/B     Am
e-----------------------0---------]-----------------------0-------1-------0-------1-------0--------]
B-------1-------3---------------1-]-------1-------3-----------------------------------------------1]
G-----0-------0-------2-------2---]-----0-------0-------2-------2-------2-------2-------2-------2--]
D---2-------0-------2-------2-----]---2-------0-------2-------2-------2-------2-------2-------2----]
A-3-------2-------0-------0-------]-3-------2-------0-------0-------0-------0-------0-------0------]
E---------------------------------]----------------------------------------------------------------]
[ Tab from: http://www.guitartabs.cc/tabs/l/led_zeppelin/bron_yr_aur_tab_ver_3.html ]
	Play 4x                                     Play 2x
  F       G       C                  G/B             C               G7/D            C
e-------1-------------------------]------3-0-----------------------1-----0-------------------------]
B-----1-------3-1-------1-------1-]3---------3-----------1-------1---0-----0-------------1-------1-]
G---2-------4---------0-------0---]--0---------0-------0-------0-------0-----0---------0-------0---]
D-3-------5---------2-------2-----]----0---------0---2-------2-----------------0-----2-------2-----]
A-----------------3-------3-------]2---------------3-------3-------2-------------2-3-------3-------]
E---------------------------------]----------------------------------------------------------------]

	Play 2x  
  Fsus2           C                 G/B             C               G7/D            C
e---------------0-----------------]------3-0-----------------------1-----0------------------------] 
B-------1---------------1-------1-]3---------3-----------1-------1---0-----0-------------1-------1]
G-----0-------0-------0-------0---]--0---------0-------0-------0-------0-----0---------0-------0--]
D---3-------3-------2-------2-----]----0---------0---2-------2-----------------0-----2-------2----]
A-3-------3-------3-------3-------]2---------------3-------3-------2-------------2-3-------3------]
E---------------------------------]---------------------------------------------------------------]

         Play 2x
  C       G/B     Am                C       G/B     Am
e-----------------------0---------]-----------------------0-------1-------0-------1-------0--------]
B-------1-------3---------------1-]-------1-------3-----------------------------------------------1]
G-----0-------0-------2-------2---]-----0-------0-------2-------2-------2-------2-------2-------2--]
D---2-------0-------2-------2-----]---2-------0-------2-------2-------2-------2-------2-------2----]
A-3-------2-------0-------0-------]-3-------2-------0-------0-------0-------0-------0-------0------]
E---------------------------------]----------------------------------------------------------------]

	Play 3x
  F       G       C
e-------1-------------------------] 
B-----1-------3-1-------1-------1-]
G---2-------4---------0-------0---]
D-3-------5---------2-------2-----]
A-----------------3-------3-------]
E---------------------------------]

  F       G       Am
e-------1---------------0-------1-------0-------1-------0-------1-------0---------]
B-----1-------3-3---------------------------------------------------------------1-]
G---2-------4---------2-------2-------2-------2-------2-------2-------2-------2---]
D-3-------5---------2-------2-------2-------2-------2-------2-------2-------2-----]
A-----------------0-------0-------0-------0-------0-------0-------0-------0-------]
E---------------------------------------------------------------------------------]

                                 Ending

  Fsus2           C  (Start to slow)      Fsus2   C       Fsus2     C
e-------------1-0-----1-0-----1-0-----1-0-----1-0-----1-0-----1-0---0-]
B-------1-----------------------------------------------------------1-]
G-----0-------------------------------------------------------------0-]
D-2-3-------3-------2-------2-------2-------3-------2-------3-------2-]
A---------0-------3-------3-------3-------0-------3-------0---------3-]
E-------------------------------------------------------------------0-]


Comments