Led Zeppelin - Bring It On Home Chords & Tabs

 

Bring It On Home Chords & Tabs

Led Zeppelin Chords & Tabs

Version: 3 Type: Tab 0 ratings
1 star 2 stars 3 stars 4 stars 5 stars
comments

Bring It On Home Tab

                               Bring It On Home                                 
                                 Led Zeppelin
                               

                                                                          
---------------------------------|---------------------------------------|
---------------------------------|---------------------------------------|
---------14b--16r14h13-14h13-----|-------------------14b--16r14h13-14~---|
-----------------------------14~-|--------12h14--------------------------|
---------------------------------|--12h14--------------------------------|
---------------------------------|--------------12-----------------------|


                                            
-------------------------------------------|
-------------------------------------------|
-------------------14b--16r14h13-14h13-----|
--------12h14--------------------------14~-|
--12h14------------------------------------|
--------------12---------------------------|


                                        
---------------------------------------|
---------------------------------------|
-------------------14b--16r14h13-14~---|
--------12h14--------------------------|
--12h14--------------------------------|
--------------12-----------------------|


                                            
-------------------------------------------|
--------12h14------14b--15r14h12-14h12-----|
--12h13-------13-----------------------13~-|
-------------------------------------------|
-------------------------------------------|
-------------------------------------------|


                                        
---------------------------------------|
--------12h14------14b--15r14h12-14~---|
--12h13-------13-----------------------|
---------------------------------------|
---------------------------------------|
---------------------------------------|


                                            
-------------------------------------------|
--------12h14------14b--15r14h12-14h12-----|
--12h13-------13-----------------------13~-|
-------------------------------------------|
-------------------------------------------|
-------------------------------------------|


                                                                       
---------------------------------------|------------------------------|
--------12h14------14b--15r14h12-14~---|--3--x-x-2--x-x-0h1--x--------|
--12h13-------13-----------------------|--4--x-x-2--x-x---------------|
---------------------------------------|------------------------------|
---------------------------------------|------------------------------|
---------------------------------------|-----------------------3--3b5-|


                                                              
------------------------------|------------------------------|
--3--x-x-2--x-x-0h1--x--------|--3--x-x-2--x-x-0h1--x--------|
--4--x-x-2--x-x---------------|--4--x-x-2--x-x---------------|
------------------------------|------------------------------|
------------------------------|------------------------------|
-----------------------3--3b0-|-----------------------3--3b5-|


                                                              
------------------------------|------------------------------|
--3--x-x-2--x-x-0h1--x--------|--3--x-x-2--x-x-0h1--x--------|
--4--x-x-2--x-x---------------|--4--x-x-2--x-x---------------|
------------------------------|------------------------------|
------------------------------|------------------------------|
-----------------------3--3b0-|-----------------------3--3b5-|


                                                              
------------------------------|------------------------------|
--3--x-x-2--x-x-0h1--x--------|--3--x-x-2--x-x-0h1--x--------|
--4--x-x-2--x-x---------------|--4--x-x-2--x-x---------------|
------------------------------|------------------------------|
------------------------------|------------------------------|
-----------------------3--3b0-|-----------------------3--3b5-|


                                                              
------------------------------|------------------------------|
--3--x-x-2--x-x-0h1--x--------|--3--x-x-2--x-x-0h1--x--------|
--4--x-x-2--x-x---------------|--4--x-x-2--x-x---------------|
------------------------------|------------------------------|
------------------------------|------------------------------|
-----------------------3--3b0-|-----------------------3--3b5-|


                                                              
------------------------------|------------------------------|
--3--x-x-2--x-x-0h1--x--------|--3--x-x-2--x-x-0h1--x--------|
--4--x-x-2--x-x---------------|--4--x-x-2--x-x---------------|
------------------------------|------------------------------|
------------------------------|------------------------------|
-----------------------3--3b0-|-----------------------3--3b5-|


                                                              
------------------------------|------------------------------|
--3--x-x-2--x-x-0h1--x--------|--3--x-x-2--x-x-0h1--x--------|
--4--x-x-2--x-x---------------|--4--x-x-2--x-x---------------|
------------------------------|------------------------------|
------------------------------|------------------------------|
-----------------------3--3b0-|-----------------------3--3b5-|


                                                                           
------------------------------|-------------------------------------------|
--3--x-x-2--x-x-0h1--x--------|-------------------------------------------|
--4--x-x-2--x-x---------------|-------------------14b--16r14h13-14h13-----|
------------------------------|--------12h14--------------------------14~-|
------------------------------|--12h14------------------------------------|
-----------------------3--3b0-|--------------12---------------------------|


                                        
---------------------------------------|
---------------------------------------|
-------------------14b--16r14h13-14~---|
--------12h14--------------------------|
--12h14--------------------------------|
--------------12-----------------------|


                                            
-------------------------------------------|
-------------------------------------------|
-------------------14b--16r14h13-14h13-----|
--------12h14--------------------------14~-|
--12h14------------------------------------|
--------------12---------------------------|


                                        
---------------------------------------|
---------------------------------------|
-------------------14b--16r14h13-14~---|
--------12h14--------------------------|
--12h14--------------------------------|
--------------12-----------------------|

[ Tab from: http://www.guitartabs.cc/tabs/l/led_zeppelin/bring_it_on_home_tab_ver_3.html ]
                                            
-------------------------------------------|
--------12h14------14b--15r14h12-14h12-----|
--12h13-------13-----------------------13~-|
-------------------------------------------|
-------------------------------------------|
-------------------------------------------|


                                        
---------------------------------------|
--------12h14------14b--15r14h12-14~---|
--12h13-------13-----------------------|
---------------------------------------|
---------------------------------------|
---------------------------------------|


                                            
-------------------------------------------|
--------12h14------14b--15r14h12-14h12-----|
--12h13-------13-----------------------13~-|
-------------------------------------------|
-------------------------------------------|
-------------------------------------------|


                                                                       
---------------------------------------|------------------------------|
--------12h14------14b--15r14h12-14~---|--3--x-x-2--x-x-0h1--x--------|
--12h13-------13-----------------------|--4--x-x-2--x-x---------------|
---------------------------------------|------------------------------|
---------------------------------------|------------------------------|
---------------------------------------|-----------------------3--3b5-|


                                                              
------------------------------|------------------------------|
--3--x-x-2--x-x-0h1--x--------|--3--x-x-2--x-x-0h1--x--------|
--4--x-x-2--x-x---------------|--4--x-x-2--x-x---------------|
------------------------------|------------------------------|
------------------------------|------------------------------|
-----------------------3--3b0-|-----------------------3--3b5-|


                                                              
------------------------------|------------------------------|
--3--x-x-2--x-x-0h1--x--------|--3--x-x-2--x-x-0h1--x--------|
--4--x-x-2--x-x---------------|--4--x-x-2--x-x---------------|
------------------------------|------------------------------|
------------------------------|------------------------------|
-----------------------3--3b0-|-----------------------3--3b5-|


                                                              
------------------------------|------------------------------|
--3--x-x-2--x-x-0h1--x--------|--3--x-x-2--x-x-0h1--x--------|
--4--x-x-2--x-x---------------|--4--x-x-2--x-x---------------|
------------------------------|------------------------------|
------------------------------|------------------------------|
-----------------------3--3b0-|-----------------------3--3b5-|


                                                              
------------------------------|------------------------------|
--3--x-x-2--x-x-0h1--x--------|--3--x-x-2--x-x-0h1--x--------|
--4--x-x-2--x-x---------------|--4--x-x-2--x-x---------------|
------------------------------|------------------------------|
------------------------------|------------------------------|
-----------------------3--3b0-|-----------------------3--3b5-|


                                                              
------------------------------|------------------------------|
--3--x-x-2--x-x-0h1--x--------|--3--x-x-2--x-x-0h1--x--------|
--4--x-x-2--x-x---------------|--4--x-x-2--x-x---------------|
------------------------------|------------------------------|
------------------------------|------------------------------|
-----------------------3--3b0-|-----------------------3--3b5-|


                                                              
------------------------------|------------------------------|
--3--x-x-2--x-x-0h1--x--------|--3--x-x-2--x-x-0h1--x--------|
--4--x-x-2--x-x---------------|--4--x-x-2--x-x---------------|
------------------------------|------------------------------|
------------------------------|------------------------------|
-----------------------3--3b0-|-----------------------3--3b5-|


                                                                           
------------------------------|-------------------------------------------|
--3--x-x-2--x-x-0h1--x--------|-------------------------------------------|
--4--x-x-2--x-x---------------|-------------------14b--16r14h13-14h13-----|
------------------------------|--------12h14--------------------------14~-|
------------------------------|--12h14------------------------------------|
-----------------------3--3b0-|--------------12---------------------------|


                                        
---------------------------------------|
---------------------------------------|
-------------------14b--16r14h13-14~---|
--------12h14--------------------------|
--12h14--------------------------------|
--------------12-----------------------|


                                            
-------------------------------------------|
-------------------------------------------|
-------------------14b--16r14h13-14h13-----|
--------12h14--------------------------14~-|
--12h14------------------------------------|
--------------12---------------------------|


                                        
---------------------------------------|
---------------------------------------|
-------------------14b--16r14h13-14~---|
--------12h14--------------------------|
--12h14--------------------------------|
--------------12-----------------------|


                                            
-------------------------------------------|
--------12h14------14b--15r14h12-14h12-----|
--12h13-------13-----------------------13~-|
-------------------------------------------|
-------------------------------------------|
-------------------------------------------|


                                        
---------------------------------------|
--------12h14------14b--15r14h12-14~---|
--12h13-------13-----------------------|
---------------------------------------|
---------------------------------------|
---------------------------------------|


                                            
-------------------------------------------|
--------12h14------14b--15r14h12-14h12-----|
--12h13-------13-----------------------13~-|
-------------------------------------------|
-------------------------------------------|
-------------------------------------------|


                                                                              
---------------------------------------|------------------|------------------|
--------12h14------14b--15r14h12-14~---|------------------|------------------|
--12h13-------13-----------------------|------------------|------------------|
---------------------------------------|------------------|------------------|
---------------------------------------|------------------|------------------|
---------------------------------------|------------------|------------------|
Comments