Led Zeppelin - Bring It On Home Chords & Tabs

 

Bring It On Home Chords & Tabs

Led Zeppelin Chords & Tabs

Version: 2 Type: Tab 0 ratings
1 star 2 stars 3 stars 4 stars 5 stars
comments

Bring It On Home Tab

   
	Led Zeppelin
	"Bring It On Home"
	Led Zeppelin II
	Atlantic Records 1969


2 guitars


Riff A-1 (3- beat)
========

Guitar 1:

e:-------------------------
B:-------------------------
G:-------------------------
D:-------------------------
A:-2-----4-----2---------2-
E:-0--0--0--0--0--0--3h4---



Riff A-2 (3- beat)
========

Guitar 1:

e:-------------------------
B:-------------------------
G:-------------------------
D:-2-----4-----2---------2-
A:-0--0--0--0--0--0--3h4---
E:-------------------------



Riff A-3 (3- beat)
========

Guitar 1:

e:-------------------------------------------------
B:-------------------------------------------------
G:-------------------------------------------------
D:-4-----6-----4-----6-----2-----4-----2-----4-----
A:-2--2--2--2--2--2--2-----0--0--0--0--0--0--0-----
E:----------------------0-----------------------0--



Riff B-1
========

e:-----------------------------
B:-----------------------------
G:-----------------------------
D:-------------5b7--5-4-5-4----
A:-----5-7------------------5--
E:-5-7-----0-------------------

e:---------------------------
B:---------------------------
G:---------------------------
D:-------------5b7--5-4-5----
A:-----5-7-------------------
E:-5-7-----0-----------------



Riff B-2
========

Guitar 1:

e:-----------------------------
B:-----------------------------
G:-----------------------------
D:-------------5b7--5-4-5-4----
A:-----5-7------------------5--
E:-5-7-----0-------------------

e:---------------------------
B:---------------------------
G:---------------------------
D:-------------5b7--5-4-5----
A:-----5-7-------------------
E:-5-7-----0-----------------

Guitar 2:

e:-----------------------------------------
B:-------12-14------14b15--14-12-14-12-----
G:-12-13-------13----------------------13--
D:-----------------------------------------
A:-----------------------------------------
E:-----------------------------------------
[ Tab from: http://www.guitartabs.cc/tabs/l/led_zeppelin/bring_it_on_home_tab_ver_2.html ]
e:-------------------------------------
B:-------12-14------14b15--14-12-14----
G:-12-13-------13----------------------
D:-------------------------------------
A:-------------------------------------
E:-------------------------------------



Riff B-3
========

Guitar 1:

e:---------------------------
B:-3------2------------------
G:-2h4--x-2---x-0h1--x----2--
D:-2----x-2---x------x-5-----
A:---------------------------
E:---------------------------

e:-----------------------------
B:-3------2--------------------
G:-2h4--x-2---x-0h1--x---------
D:-2----x-2---x------x---------
A:-----------------------------
E:---------------------3b4--0--

Guitar 2:

e:-...---------------------
B:-...---------------------
G:-...---------------------
D:-...---------------------
A:-...------0--------------
E:-...-3b4-----...-3b4--0--



Verse B-2 Fill
==============

Guitar 2:

e:-----12-12-12-12---
B:-----x--x--x--x----
G:-----9--9--9--9----
D:-------------------
A:-------------------
E:-------------------



Riff C-1
========

Guitar 1:

e:-------------------------
B:-------------------------
G:-------------------------
D:-4-----6-----4-----6-----
A:-2--2--2--2--2--2--2-----
E:----------------------0--

e:-------------------------
B:-------------------------
G:-------------------------
D:-2-----4-----2-----4-----
A:-0--0--0--0--0--0--0-----
E:----------------------0--

e:-------------------------
B:-------------------------
G:-------------------------
D:-------------------------
A:-2-----4-----2---------2-
E:-0--0--0--0--0--0--0h4---

e:-----------------------
B:-----------------------
G:-----------------------
D:-----------------------
A:-2-----4-----2---------
E:-0--0--0--0--0--4----5-

e:-------------------------
B:-------------------------
G:-------------------------
D:-4-----6-----4-----6-----
A:-2--2--2--2--2--2--2-----
E:----------------------0--

e:-------------------------
B:-------------------------
G:-------------------------
D:-2-----4-----2-----4-----
A:-0--0--0--0--0--0--0-----
E:----------------------0--

e:-------
B:-------
G:-------
D:-------
A:-2-----
E:-0-----



Riff C-2
========

Guitar 2:

e:----12-------12-------12-----------------
B:-9-----9--10----10-11----11-12\\---3-----
G:-x-----x--x-----x--x-----x--x------1-----
D:-9-----9--10----10-11----11-12\\---2-----
A:-----------------------------------2-----
E:-----------------------------------------
Comments