Led Zeppelin - Bring It On Home Chords & Tabs

 

Bring It On Home Chords & Tabs

Led Zeppelin Chords & Tabs

Version: 1 Type: Bass Tab 1 rating
1 star 2 stars 3 stars 4 stars 5 stars
comments

Bring It On Home Bass Tab

Bring It On Home - Led Zeppelin

  intro riffs
G|---------------|---11-119-9---9|---13-1311-11----11---11-119-9---9|
D|---11-119-9---9|7-7--------911-|9-9----------1113--7-7--------911-|
A|7-7--------911-|0-0------------|----------------------------------|
E|0-0------------|---------------|----------------------------------|

  verse
G|----------------|----------------|
D|-------9--7676--|-------9--767---|
A|--57----------7-|--57------------|
E|57--0-----------|57--0-----------| 3X

G| |----------------|----------------|----------------|----------------|
D|o|----------------|----------------|----------------|----------------|
A|o|--------------7-|7--7-7--77------|7--777--------7-|7--7-7-7-7-7----|
E| |0--0---4-5-7-9-9|----9--9----3-0-|-------4-5-7-9--|----9-------3-0-|

G|----------------|----------------|----------------|----------------|
D|----------------|----------------|----------------|----------------|
A|7--777--------7-|7--7-7-7-7-7----|7--777-------7--|7--777-4-7------|
E|-------4-5-7-9--|----9-------3-0-|-------457-79--9|------------3-0-|
[ Tab from: http://www.guitartabs.cc/tabs/l/led_zeppelin/bring_it_on_home_btab.html ]
G|---------7-----9|----------------|-----------7---9|
D|-------79--9911-|----------------|---------79-911-|
A|7--777----------|7--75-----------|7--777-7--------|
E|----------------|-----7-5-4-43-0-|----------------|

G|----------------|-----------7---9|----------------|----------------|
D|----------------|---------79-911-|----------------|----------------|
A|7--777-5--------|7--777-7--------|7--777-5--------|7--77--7---775--|
E|---------7-53-0-|----------------|---------7-53-0-|--------------7-|

G|----------------|----------------|----------------|----------------|
D|-------9--767---|-------9--7676--|-------9--767---|-------9--7676--|
A|--57------------|--57----------7-|--57------------|--57----------7-|
E|57--0-----------|57--0-----------|57--0-----------|57--0-----------|
                                   __________________
                                   1.                |
G|----------------|----------------|---------------- |
D|-------9--767---|-------9-97676--|-------9-9767---o|
A|--57------------|--57----------7-|--57------------o|
E|57--0-----------|57--0-----------|57--0----------- |
 _________________
 2.
G|----------------|----------------|
D|-------9--767---|7---------------|
A|--57------------|----------------|
E|57--0-----------|----------------|

G|----------------|
D|----------------|
A|----------------|
E|----------------| 8X

tabbed by Achilles (blue_sincere@hotmail.com)
portions of this tab were taken from work by Billy Karen (EWJR18C@prodigy.com)

Comments