Led Zeppelin - Boogie With Stu Chords & Tabs

 

Boogie With Stu Chords & Tabs

Led Zeppelin Chords & Tabs

Version: 3 Type: Tab 0 ratings
1 star 2 stars 3 stars 4 stars 5 stars
comments

Boogie With Stu Tab

======================================================================
       BOOGIE WITH STU (MANDOLIN SOLO 1 AND 2) - Led Zeppelin
======================================================================

Tabbed by: Thayer
Email: livewire2690@comcast.net

The first mandolin solo:
E|--------------0-|
A|----------0-4---|
D|----------------|
G|----------------|

E|5-5-5-5-5-5-5-5-|5-3-2-0---------|--------5-----3-|----5-----3-----|
A|----------------|--------4-2-0---|0-0-3-4---3-4---|3-4---3-4---3-4-|
D|----------------|--------------4-|----------------|----------------|
G|----------------|----------------|----------------|----------------|

E|3-2-0-----------|----------------|--------5-----5-|----5-5-------0-|
A|------4-2-0---2-|0---3-2-0---0-0-|--0-3-4---3-4---|3-4---------2---|
D|------------4---|--4-------4-----|----------------|----------4-----|
G|----------------|----------------|----------------|----------------|

E|----------0-----|------0---------|------0-2---0-2-|5-0---5-000-5---||
A|4-2-----2---4-2-|----2---4-2---0-|0-0-4-----4-----|----4------4--4-||
D|------4---------|--4---------4---|----------------|----------------||
G|----------------|----------------|----------------|----------------||

[ Tab from: http://www.guitartabs.cc/tabs/l/led_zeppelin/boogie_with_stu_tab_ver_3.html ]
The second mandolin solo:
E|5-5-5-5-5-5-5-5-|5-3-2-0---------|--------2---0---|--------------0-|
A|----------------|--------4-2-0---|0-0-2-4---4---2-|4-2-0---0-0-4---|
D|----------------|--------------4-|----------------|------4---------|
G|----------------|----------------|----------------|----------------|

E|5-5-5-5-5-5-5-5-|5-3-2-0---------|--------0-----5-|----3-----2-0---|
A|----------------|--------4-2-0---|0-0-2-4---3-4---|3-4---3-4-----4-|
D|----------------|--------------4-|----------------|----------------|
G|----------------|----------------|----------------|----------------|

E|--------0-------|------0---------|--------5-5-5-5-|5-2-0-----------||
A|2-0---2---3-4-2-|----2---4-2---0-|--0-3-4---------|------4---2-0---||
D|----4-----------|--4---------4---|----------------|--------------4-||
G|----------------|----------------|----------------|----------------||

E|----------------|------5-----5---|--5-------------|------5-----5---|
A|0-------0-------|--3-4---3-4---3-|4---------------|--3-4---3-4---2-|
D|----4-------4---|----------------|----5-4-2---4-4-|4---------------|
G|----------------|----------------|----------------|----------------|

E|--5-------------|------5-----5---|--5-------------|------5-----5---|
A|3---------------|--3-4---3-4---3-|4---------------|--3-4---3-4-----|
D|----------------|----------------|----5-4-2-2-4-4-|2---------------|
G|----------------|----------------|----------------|----------------|

E|0-0-0-0-0-0-0-0-|0-0-0-0-0-0-0-0-|5---------------| 
A|2-2-4-4-2-2-4-4-|2-2-4-4-2-2-4-4-|0---------------| 
D|----------------|----------------|----------------| 
G|----------------|----------------|----------------|
Comments