Led Zeppelin - Black Dog Chords & Tabs

 

Black Dog Chords & Tabs

Led Zeppelin Chords & Tabs

Version: 1 Type: Tab 18 ratings
1 star 2 stars 3 stars 4 stars 5 stars
comments

Black Dog Tab

   
Artist: Led Zeppelin 
Title: Black Dog
Album: Early Days, The Best of Led Zeppelin
Volume Two  
Tabbed by: Kevin
Tuning: Standard (E,A,D,G,B,E)  

This is my first tab but I’m sure it’s right 
  Intro
E |---------------------------------------------------------|
B |--------------------5------------------------------------|
G |-----------5-----7----5h7p5------5-----------------------|
D |---5-6-7------7-------------7-7----7--5-7-7-----------7--|
A |-7-------7----------------------------------5-7---5---7--|
E |------------------------------------------------8---5-5--|
[ Tab from: http://www.guitartabs.cc/tabs/l/led_zeppelin/black_dog_tab.html ]
E |-------------------------------------------------------------|
B |-------------------------------------------------------------|
G |-------------------------------------------------------------|
D |-----------5-------------5-------------5--------------5-6-7--|
A |---5-6-7-----7---5-6-7-----7---5-6-7-----7---5-6-7--7------7-|
E |-7-------7-----7-------7-----7-------7-----7-----------------|
(Listen to the song for timing)
    
E |----------------------------------------------|
B |--------5-------------------------------------|
G |-5----7---5h7p5-----5-------------------------|
D |---7------------7-7---7--5-7-7-----------7----|
A |-------------------------------5-7---5---7----|
E |-----------------------------------8---5-5----|

  Chords
E |-------------------------------------------------|
B |-------------------------------------------------|
G |--------------------------------------5--4-------|
D |---------------------5----------------5--5--7----|
A |-7--5--7--5----7--5--3--7----7--5--7--------7----|
E |-5--3--5--3----5--3-----5----5--3--5--------5----|

That’s all I know Have Fun!
Comments