Led Zeppelin - Black Dog Intro Chords & Tabs

 

Black Dog Intro Chords & Tabs

Led Zeppelin Chords & Tabs

Version: 1 Type: Tab 1 rating
1 star 2 stars 3 stars 4 stars 5 stars
comments

Black Dog Intro Tab

This is my first tab i think its write.



e------------------------------------0---------------------------------------------------------------
b-------------------------1-----3------131------1----------------------------------------------------
g-------0---1---2-----------2---------------22----2---0--2—2-----------------------------------------
d---2---------------2----------------------------------------------0—2---------0-----2---------------
a--------------------------------------------------------------------------3---------0---------------
E----------------------------------------------------------------------------------------------------
[ Tab from: http://www.guitartabs.cc/tabs/l/led_zeppelin/black_dog_intro_tab.html ]
e----------------------------------------------------------------------------------------------------
b----------------------------------------------------------------------------------------------------
g---------------------0-----------------------0--------------------0--------------------0-1----------
d-------0--1--2--------2-----0--1—2--------------2-----0--1—2---------2-----0—1—2---0—2--------------
a---2-------------2--------2------------2-----------2-------------2------2---------------------------
E----------------------------------------------------------------------------------------------------


e-----------------------0----------------------------------------------------------------------------
b-----------1------3------131---------1--------------------------------------------------------------
g---2----------2-----------------2--2-----2---0—2—2--------------------------------------------------
d------2---------------------------------------------------0—2----0---2---2--------------------------
a--------------------------------------------------------------3------0---0--------------------------
E----------------------------------------------------------------------------------------------------
Comments