Led Zeppelin - Black Dog Chords & Tabs

 

Black Dog Chords & Tabs

Led Zeppelin Chords & Tabs

Version: 4 Type: Bass Tab 0 ratings
1 star 2 stars 3 stars 4 stars 5 stars
comments

Black Dog Bass Tab

    h=hammer on
    p=pull off

G--------5-7h9-5h7p5--5-------------]
D----567--7---------77-7-5-77-------]
A---7---7--------------------5-7-5--]     x3
E-------------------------------7-55]

  then

G----------]
D--------5-]
A----567--7]    x3
E---7---7--]

  next
[ Tab from: http://www.guitartabs.cc/tabs/l/led_zeppelin/black_dog_btab_ver_4.html ]
G---------------5-7h9-5h7p5--5-------------]
D-----------567--7---------77-7-5-77-------]
A----567-5-6---7--------------------5-7-5--]
E---7----------------------------------7-55]


   what I have here I think is correct. there are soma other parts I havent
   quite figured out but as soon as I do I will put tham on.this is also my
   first tab.  (ENJOY)


   More people should listen to led zeppelin because there one of the greatest
   bands ever. Its too bad that their basist and drummer died  :(
Comments