Led Zeppelin - Battle Of Evermore Chords & Tabs

 

Battle Of Evermore Chords & Tabs

Led Zeppelin Chords & Tabs

Version: 2 Type: Tab 0 ratings
1 star 2 stars 3 stars 4 stars 5 stars
comments

Battle Of Evermore Tab

Battle of Evermore
Led Zeppelin
tabbed by: eddy


Intro         Fade In
e|-----------12--12---------12--12------------------------------------------------|
B|---13--13--13--13--13--13-13--13------------------------------------------------|
G|---14--14----------14--14--------------repeat as neccesary----------------------|
D|--------------------------------------------------------------------------------|
A|--------------------------------------------------------------------------------|
E|--------------------------------------------------------------------------------|

e|--12-12-12-12-12-12-------------------------------------------------------------|
B|--13-13-13-13-13-13-12-12-------------------------------------------------------|
G|--14-14-14-14-14-14-16-16------X4-----------------------------------------------|
D|--------------------------------------------------------------------------------|
A|--------------------------------------------------------------------------------|
E|--------------------------------------------------------------------------------|

Verse
e|--14--14--14---14--14--14--15--15--14--14--14---14--14--14---12--12-------------|
B|--15--15--15---15--15--15--15--15--15--15--15---15--15--15---13--13-------------|
G|--14--14--14---14--14--14--14--14--14--14--14---14--14--14---14--14------X4-----|
D|--------------------------------------------------------------------------------|
A|--------------------------------------------------------------------------------|
E|--------------------------------------------------------------------------------|

Chorous
e|--17----17------15-14----14-15-17------17----17-----15-14-----------------------|
B|--15----15------------17----------17---15----15-----------17--------------------|
G|--14----14-----------------------------14----14--------------17-16-14-----------|
D|--------------------------------------------------------------------------------|
A|--------------------------------------------------------------------------------|
E|--------------------------------------------------------------------------------|
[ Tab from: http://www.guitartabs.cc/tabs/l/led_zeppelin/battle_of_evermore_tab_ver_2.html ]
Here\'s like an interlude part where the lyrics go \"I hear the horses\' thunder down in 
valley below,
I\'m waiting for the angels of Avalon, waiting for the eastern glow.\"


e|--14--15--15--15---15----15-----14--14--14---17--17--17--------------------------|
B|--15--15--15--15---15----15-----15--15--15---15--15--15--------------------------|
G|--14--14--14--14---14----14-----14--14--14---14--14--14--------------------------|
D|-----------------------------------------------------------X2--------------------|
A|---------------------------------------------------------------------------------|
E|---------------------------------------------------------------------------------|

e|--14--15--15--15---15----15-----12--12--12---12--12--12--------------------------|
B|--15--15--15--15---15----15-----13--13--13---13--13--13--------------------------|
G|--14--14--14--14---14----14------------------------------------------------------|
D|-----------------------------------------------------------X2--------------------|
A|---------------------------------------------------------------------------------|
E|---------------------------------------------------------------------------------|

Then it repeats those parts a few times then goes into the Intro again, when Plant\'s 
stops it plays this-

e|---------------------------------------------------------------------------------|
B|--15-15--13-13--12-12------------------------------------------------------------|
G|--12-12--12-12--12-12--12-12-----------------------------------------------------|
D|------------------------------------repeat a few times---------------------------|
A|---------------------------------------------------------------------------------|
E|---------------------------------------------------------------------------------|

Then it plays this little scale thing just before Plant starts singing \"bring it back\".

e|---17-15-14-------------|
B|------------17----------|
G|---------------17-16----|  This opens straight into the verse riff.
D|------------------------|
A|------------------------|
E|------------------------|

Then it repeats some of the other parts and ends with the verse riff fading out.



enjoy
Comments