Led Zeppelin - Babe Im Gonna Leave You Complete Chords & Tabs

 

Babe Im Gonna Leave You Complete Chords & Tabs

Led Zeppelin Chords & Tabs

Version: 1 Type: Tab 8 ratings
1 star 2 stars 3 stars 4 stars 5 stars
comments

Babe Im Gonna Leave You Complete Tab

Babe I’m Gonna Leave You
Led Zeppelin

This is the exact tab and if you have a problem then go buy the book.

E|------0---------|----------------|----------------|----------------|
B|--------------1-|------3-------1-|------3-------1-|------1-------0-|
G|----2-------2---|----0-------0---|----2-------2---|----2-------1---|
D|--2-------2-----|--2-------2-----|--0-------0-----|--3-------2-----|
A|0-------0-------|----------------|----------------|----------------|
E|----------------|3-------3-------|2-------2-------|1-------0-------|

E|------3-------0-|------3-------0-|----------------|----------------|
B|----------------|----------------|------3-------1-|------1-------0-|
G|----2-------2---|----0-------0---|----2-------2---|----2-------1---|
D|--2-------2-----|--2-------2-----|--0-------0-----|--3-------2-----|
A|0-------0-------|----------------|----------------|----------------|
E|----------------|3-------3-------|2-------2-------|1-------0-------|

E|------3-------0-|----------------|----------------|----------------|
B|----------------|------3-------1-|------3-------1-|------1-------0-|
G|----2-------2---|----0-------0---|----2-------2---|----2-------1---|
D|--2-------2-----|--2-------2-----|--0-------0-----|--3-------2-----|
A|0-------0-------|----------------|----------------|----------------|
E|----------------|3-------3-------|2-------2-------|1-------0-------|

E|------3-------0-|----------------|----------------|----------------|
B|----------------|------3-------1-|------3-------1-|------1-------0-|
G|----2-------2---|----0-------0---|----2-------2---|----2-------1---|
D|--2-------2-----|--2-------2-----|--0-------0-----|--3-------2-----|
A|0-------0-------|----------------|----------------|----------------|
E|----------------|3-------3-------|2-------2-------|1-------0-------|

E|------3-------0-|----------------|----------------|----------------|
B|----------------|------3-------1-|------3-------1-|------1-------0-|
G|----2-------2---|----0-------0---|----2-------2---|----2-------1---|
D|--2-------2-----|--2-------2-----|--0-------0-----|--3-------2-----|
A|0-------0-------|----------------|----------------|----------------|
E|----------------|3-------3-------|2-------2-------|1-------0-------|

E|------3-------0-|------3-------0-|----------------|--------------0-|
B|----------------|----------------|------3-------1-|------1-------0-|
G|----2-------2---|----0-------0---|----2-------2---|----2-------1---|
D|--2-------2-----|--2-------2-----|--0-------0-----|--3-------2-----|
A|0-------0-------|----------------|----------------|----------------|
E|----------------|3-------3-------|2-------2-------|1-------0-------|

E|----------------|----------------|----------------|----------------|
B|------3-------1-|------3-------0-|------3-------1-|------3-------0-|
G|----2-------2---|----1-------1---|----2-------2---|----1-------1---|
D|--3-------3-----|--2-------2-----|--3-------3-----|--2-------2-----|
A|----------------|----------------|----------------|----------------|
E|1-------1-------|0-------0-------|1-------1-------|0-------0-------|


E|------0-------0-|------3-------0-|----------------|----------------|
B|----------------|----------------|------1-------1-|------1-------0-|
G|----2-------2---|----0-------0---|----2-------2---|----2-------1---|
D|--2-------2-----|--2-------2-----|--0-------0-----|--3-------2-----|
A|0-------0-------|----------------|----------------|----------------|
E|----------------|3-------3-------|2-------2-------|1-------0-------|

E|0-000-0---0---0-|--0-0-0-0-0-0-0-|0-000-0---0---0-|--0-0-0-0-0-0-0-|
B|1-111-1---8---6-|--6-6-6-6-6-6-6-|1-111-1---8---6-|--6-6-6-6-6-6-6-|
G|2-222-2---9---7-|--7-7-7-7-7-7-7-|2-222-2---9---7-|--7-7-7-7-7-7-7-|
D|2-222-2---7---7-|--7-7-7-7-7-7-7-|2-222-2---7---7-|--7-7-7-7-7-7-7-|
A|0-000-0---0---0-|--0-0-0-0-0-0-0-|0-000-0---0---0-|--0-0-0-0-0-0-0-|
E|----------------|----------------|----------------|----------------|

E|0-000-0---0---0-|--0-0-0-0-0-0-0-|0-000-0---0---0-|--0-0-0-0-0-0-0-|
B|1-111-1---8---6-|--6-6-6-6-6-6-6-|1-111-1---8---6-|--6-6-6-6-6-6-6-|
G|2-222-2---9---7-|--7-7-7-7-7-7-7-|2-222-2---9---7-|--7-7-7-7-7-7-7-|
D|2-222-2---7---7-|--7-7-7-7-7-7-7-|2-222-2---7---7-|--7-7-7-7-7-7-7-|
A|0-000-0---0---0-|--0-0-0-0-0-0-0-|0-000-0---0---0-|--0-0-0-0-0-0-0-|
E|----------------|----------------|----------------|----------------|

E|--------------0-|----------------|----------------|----------------|
B|----------------|------3-------1-|------1-------1-|------1-------0-|
G|----2-------2---|----0-------0---|----2-------2---|----2-------1---|
D|--2-------2-----|--2-------2-----|--0-------0-----|--3-------2-----|
A|0-------0-------|----------------|----------------|----------------|
E|----------------|3-------3-------|2-------2-------|1-------0-------|


E|------3-------0-|----------------|----------------|----------------|
B|----------------|------3-------1-|------3-------1-|------1-------0-|
G|----2-------2---|----0-------0---|----2-------2---|----2-------1---|
D|--2-------2-----|--2-------2-----|--0-------0-----|--3-------2-----|
A|0-------0-------|----------------|----------------|----------------|
E|----------------|3-------3-------|2-------2-------|1-------0-------|

E|------3-------0-|----------------|----------------|----------------|
B|----------------|------3-------1-|------3-------1-|------1-------0-|
G|----2-------2---|----0-------0---|----2-------2---|----2-------1---|
D|--2-------2-----|--2-------2-----|--0-------0-----|--3-------2-----|
A|0-------0-------|----------------|----------------|----------------|
E|----------------|3-------3-------|2-------2-------|1-------0-------|

E|------3-------0-|----------------|----------------|----------------|
B|----------------|------3-------1-|------3-------1-|------1-------0-|
G|----2-------2---|----0-------0---|----2-------2---|----2-------1---|
D|--2-------2-----|--2-------2-----|--0-------0-----|--3-------2-----|
A|0-------0-------|----------------|----------------|----------------|
E|----------------|3-------3-------|2-------2-------|1-------0-------|




E|----------------|----------------|----------------|----------------|
B|------3-------1-|------3-------0-|------3-------1-|------3-------0-|
G|----2-------2---|----1-------1---|----2-------2---|----1-------1---|
D|--3-------3-----|--2-------2-----|--3-------3-----|--2-------2-----|
A|----------------|----------------|----------------|----------------|
E|1-------1-------|0-------0-------|1-------1-------|0-------0-------|

E|------0---------|----------------|----------------|------0---------|
B|--------------1-|------3-------1-|------1-------1-|--------------0-|
G|----2-------2---|----0-------0---|----2-------2---|----2-------1---|
D|--2-------2-----|--2-------2-----|--0-------0-----|--3-------2-----|
A|0-------0-------|----------------|----------------|----------------|
E|----------------|3-------3-------|2-------2-------|1-------0-------|

E|0-000-0---0---0-|--0-0-0-0-0-0-0-|0-000-0---0---0-|--0-0-0-0-0-0-0-|
B|1-111-1---8---6-|--6-6-6-6-6-6-6-|1-111-1---8---6-|--6-6-6-6-6-6-6-|
G|2-222-2---9---7-|--7-7-7-7-7-7-7-|2-222-2---9---7-|--7-7-7-7-7-7-7-|
D|2-222-2---7---7-|--7-7-7-7-7-7-7-|2-222-2---7---7-|--7-7-7-7-7-7-7-|
A|0-000-0---0---0-|--0-0-0-0-0-0-0-|0-000-0---0---0-|--0-0-0-0-0-0-0-|
E|----------------|----------------|----------------|----------------|

E|0-000-0---0---0-|--0-0-0-0-0-0-0-|0-000-0---0---0-|--0-0-0-0-0-0-0-|
B|1-111-1---8---6-|--6-6-6-6-6-6-6-|1-111-1---8---6-|--6-6-6-6-6-6-6-|
G|2-222-2---9---7-|--7-7-7-7-7-7-7-|2-222-2---9---7-|--7-7-7-7-7-7-7-|
D|2-222-2---7---7-|--7-7-7-7-7-7-7-|2-222-2---7---7-|--7-7-7-7-7-7-7-|
A|0-000-0---0---0-|--0-0-0-0-0-0-0-|0-000-0---0---0-|--0-0-0-0-0-0-0-|
E|----------------|----------------|----------------|----------------|

E|----------------|----------------|----------------|----------------|
B|------5-------8-|------8-------6-|------1-------8-|------8-------6-|
G|----4-------9---|----7-------7---|----4-------9---|----7-------7---|
D|--2-------7-----|--7-------7-----|--2-------7-----|--7-------7-----|
A|0-------0-------|0-------0-------|0-------0-------|0-------0-------|
E|----------------|----------------|----------------|----------------|

E|----------------|----------------|----------------|----------------|
B|------1-------8-|------8-------6-|------1-------8-|------8-------6-|
G|----4-------9---|----7-------7---|----4-------9---|----7-------7---|
D|--2-------7-----|--7-------7-----|--2-------7-----|--7-------7-----|
A|0-------0-------|0-------0-------|0-------0-------|0-------0-------|
E|----------------|----------------|----------------|----------------|

E|0-0-0-0--0---0--|3-3-3-0--3---3--|2-2-2-0--2---2--|1-1-1-1-0-0-0-0-|
B|1-1-1-0--1---1--|1-1-1-0--1---1--|1-1-1-0--1---1--|1-1-1-1-0-0-0-0-|
G|2-2-2-0--2---2--|0-0-0-0--0---0--|2-2-2-0--2---2--|2-2-2-2-1-1-1-1-|
D|2-2-2----2---2--|2-2-2----2---2--|0-0-0----0---0--|3-3-3-3-2-2-2-2-|
A|0-0-0----0---0--|x-x-x----x---x--|x-x-x----x---x--|3-3-3-3-2-2-2-2-|
E|----------------|3-3-3----3---3--|2-2-2----2---2--|1-1-1-1-0-0-0-0-|





E|0-0-0-0--0---0--|3-3-3-0--3---3--|2-2-2-0--2---2--|1-1-1-1-0-0-0-0-|
B|1-1-1-0--1---1--|1-1-1-0--1---1--|1-1-1-0--1---1--|1-1-1-1-0-0-0-0-|
G|2-2-2-0--2---2--|0-0-0-0--0---0--|2-2-2-0--2---2--|2-2-2-2-1-1-1-1-|
D|2-2-2----2---2--|2-2-2----2---2--|0-0-0----0---0--|3-3-3-3-2-2-2-2-|
A|0-0-0----0---0--|x-x-x----x---x--|x-x-x----x---x--|3-3-3-3-2-2-2-2-|
E|----------------|3-3-3----3---3--|2-2-2----2---2--|1-1-1-1-0-0-0-0-|

E|0-0-0-0--0---0--|3-3-3-0--3---3--|2-2-2-0--2---2--|1-1-1-1-0-0-0-0-|
B|1-1-1-0--1---1--|1-1-1-0--1---1--|1-1-1-0--1---1--|1-1-1-1-0-0-0-0-|
G|2-2-2-0--2---2--|0-0-0-0--0---0--|2-2-2-0--2---2--|2-2-2-2-1-1-1-1-|
D|2-2-2----2---2--|2-2-2----2---2--|0-0-0----0---0--|3-3-3-3-2-2-2-2-|
A|0-0-0----0---0--|x-x-x----x---x--|x-x-x----x---x--|3-3-3-3-2-2-2-2-|
E|----------------|3-3-3----3---3--|2-2-2----2---2--|1-1-1-1-0-0-0-0-|
[ Tab from: http://www.guitartabs.cc/tabs/l/led_zeppelin/babe_im_gonna_leave_you_complete_tab.html ]
E|0-0-0-0--0---0--|3-3-3-0--3---3--|2-2-2-0--2---2--|1-1-1-1-0-0-0-0-|
B|1-1-1-0--1---1--|1-1-1-0--1---1--|1-1-1-0--1---1--|1-1-1-1-0-0-0-0-|
G|2-2-2-0--2---2--|0-0-0-0--0---0--|2-2-2-0--2---2--|2-2-2-2-1-1-1-1-|
D|2-2-2----2---2--|2-2-2----2---2--|0-0-0----0---0--|3-3-3-3-2-2-2-2-|
A|0-0-0----0---0--|x-x-x----x---x--|x-x-x----x---x--|3-3-3-3-2-2-2-2-|
E|----------------|3-3-3----3---3--|2-2-2----2---2--|1-1-1-1-0-0-0-0-|

E|1-1-1-1--1---1--|0-0-0-0-0-0-0-0-|1-1-1-1--1---1--|0-0-0-0-0-0-0-0-|
B|1-1-1-1--1---1--|0-0-0-0-0-0-0-0-|1-1-1-1--1---1--|0-0-0-0-0-0-0-0-|
G|2-2-2-2--2---2--|1-1-1-1-1-1-1-1-|2-2-2-2--2---2--|1-1-1-1-1-1-1-1-|
D|3-3-3-3--3---3--|2-2-2-2-2-2-2-2-|3-3-3-3--3---3--|2-2-2-2-2-2-2-2-|
A|3-3-3-3--3---3--|2-2-2-2-2-2-2-2-|3-3-3-3--3---3--|2-2-2-2-2-2-2-2-|
E|1-1-1-1--1---1--|0-0-0-0-0-0-0-0-|1-1-1-1--1---1--|0-0-0-0-0-0-0-0-|

E|0-000-0---0---0-|--0-0-0-0-0-0-0-|0-000-0---0---0-|--0-0-0-0-0-0-0-|
B|1-111-1---8---6-|--6-6-6-6-6-6-6-|1-111-1---8---6-|--6-6-6-6-6-6-6-|
G|2-222-2---9---7-|--7-7-7-7-7-7-7-|2-222-2---9---7-|--7-7-7-7-7-7-7-|
D|2-222-2---7---7-|--7-7-7-7-7-7-7-|2-222-2---7---7-|--7-7-7-7-7-7-7-|
A|0-000-0---0---0-|--0-0-0-0-0-0-0-|0-000-0---0---0-|--0-0-0-0-0-0-0-|
E|----------------|----------------|----------------|----------------|

E|0-000-0---0---0-|--0-0-0-0-0-0-0-|0-000-0---0---0-|--0-0-0-0-0-0-0-|
B|1-111-1---8---6-|--6-6-6-6-6-6-6-|1-111-1---8---6-|--6-6-6-6-6-6-6-|
G|2-222-2---9---7-|--7-7-7-7-7-7-7-|2-222-2---9---7-|--7-7-7-7-7-7-7-|
D|2-222-2---7---7-|--7-7-7-7-7-7-7-|2-222-2---7---7-|--7-7-7-7-7-7-7-|
A|0-000-0---0---0-|--0-0-0-0-0-0-0-|0-000-0---0---0-|--0-0-0-0-0-0-0-|
E|----------------|----------------|----------------|----------------|

E|------0---------|----------------|----------------|----------------|
B|--------------1-|------3-------1-|------3-------1-|------1-------0-|
G|----2-------2---|----0-------0---|----2-------2---|----2-------1---|
D|--2-------2-----|--2-------2-----|--0-------0-----|--3-------2-----|
A|0-------0-------|----------------|----------------|----------------|
E|----------------|3-------3-------|2-------2-------|1-------0-------|





E|------3-------0-|----------------|----------------|----------------|
B|----------------|------3-------1-|------3-------1-|------1-------0-|
G|----2-------2---|----0-------0---|----2-------2---|----2-------1---|
D|--2-------2-----|--2-------2-----|--0-------0-----|--3-------2-----|
A|0-------0-------|----------------|----------------|----------------|
E|----------------|3-------3-------|2-------2-------|1-------0-------|

E|------3-------1-|------1-------0-|------0---------|------0-------0-|
B|----------------|----0-------0---|--------------3-|----------------|
G|----2-------2---|--0-------0-----|----2-------2---|----2-------1---|
D|--2-------2-----|----------------|--4-------4-----|--3-------2-----|
A|0-------0-------|----------------|----------------|----------------|
E|----------------|3-------3-------|2-------2-------|1-------0-------|

E|----0-----------|----------------|----------------|----------------|
B|------1-------1-|------1-------1-|------1-------1-|------1-------0-|
G|------------2---|----0-------0---|----2-------2---|----2-------1---|
D|--2-------2-----|--2-------2-----|--0-------0-----|--3-------2-----|
A|0-------0-------|----------------|----------------|----------------|
E|----------------|3-------3-------|2-------2-------|1-------0-------|

E|------3-------1-|------0-------1-|------0---------|----------------|
B|----------------|----0-------0---|--------------3-|------1-------0-|
G|----2-------2---|--0-------0-----|----2-------2---|----2-------1---|
D|--2-------2-----|----------------|--4-------4-----|--3-------2-----|
A|0-------0-------|----------------|----------------|----------------|
E|----------------|3-------3-------|2-------2-------|1-------0-------|

E|----------------|----------------|----------------|----------------|
B|------1-------1-|------1-------1-|------1-------1-|------1-------0-|
G|----2-------2---|----0-------0---|----2-------2---|----2-------1---|
D|--2-------2-----|--2-------2-----|--0-------0-----|--3-------2-----|
A|0-------0-------|----------------|----------------|----------------|
E|----------------|3-------3-------|2-------2-------|1-------0-------|

E|0-0-0-0--0---0--|3-3-3-0--3---3--|2-2-2-0--2---2--|1-1-1-1-0-0-0-0-|
B|1-1-1-0--1---1--|1-1-1-0--1---1--|1-1-1-0--1---1--|1-1-1-1-0-0-0-0-|
G|2-2-2-0--2---2--|0-0-0-0--0---0--|2-2-2-0--2---2--|2-2-2-2-1-1-1-1-|
D|2-2-2----2---2--|2-2-2----2---2--|0-0-0----0---0--|3-3-3-3-2-2-2-2-|
A|0-0-0----0---0--|x-x-x----x---x--|x-x-x----x---x--|3-3-3-3-2-2-2-2-|
E|----------------|3-3-3----3---3--|2-2-2----2---2--|1-1-1-1-0-0-0-0-|

E|0-0-0-0--0---0--|3-3-3-0--3---3--|2-2-2-0--2---2--|1-1-1-1-0-0-0-0-|
B|1-1-1-0--1---1--|1-1-1-0--1---1--|1-1-1-0--1---1--|1-1-1-1-0-0-0-0-|
G|2-2-2-0--2---2--|0-0-0-0--0---0--|2-2-2-0--2---2--|2-2-2-2-1-1-1-1-|
D|2-2-2----2---2--|2-2-2----2---2--|0-0-0----0---0--|3-3-3-3-2-2-2-2-|
A|0-0-0----0---0--|x-x-x----x---x--|x-x-x----x---x--|3-3-3-3-2-2-2-2-|
E|----------------|3-3-3----3---3--|2-2-2----2---2--|1-1-1-1-0-0-0-0-|





E|------0---------|----------------|------2---------|----------------|
B|--------------1-|------3-------1-|--------------1-|------1-------0-|
G|----2-------2---|----0-------0---|----2-------2---|----2-------1---|
D|--2-------2-----|--2-------2-----|--0-------0-----|--3-------2-----|
A|0-------0-------|----------------|----------------|----------------|
E|----------------|3-------3-------|2-------2-------|1-------0-------|

E|------3-------1-|------1-------0-|------0---------|------0-------0-|
B|----------------|----0-------0---|--------------3-|----------------|
G|----2-------2---|--0-------0-----|----2-------2---|----2-------1---|
D|--2-------2-----|----------------|--4-------4-----|--3-------2-----|
A|0-------0-------|----------------|----------------|----------------|
E|----------------|3-------3-------|2-------2-------|1-------0-------|

E|------3-------1-|------1-------0-|------0---------|------0-------0-|
B|----------------|----0-------0---|--------------3-|----------------|
G|----2-------2---|--0-------0-----|----2-------2---|----2-------1---|
D|--2-------2-----|----------------|--4-------4-----|--3-------2-----|
A|0-------0-------|----------------|----------------|----------------|
E|----------------|3-------3-------|2-------2-------|1-------0-------|

E|----------------|----------------|----------------|----------------|
B|------1-------1-|------1-------1-|------1-------1-|------1-------0-|
G|----2-------2---|----0-------0---|----2-------2---|----2-------1---|
D|--2-------2-----|--2-------2-----|--0-------0-----|--3-------2-----|
A|0-------0-------|----------------|----------------|----------------|
E|----------------|3-------3-------|2-------2-------|1-------0-------|

E|----------------|----------------|----------------|----------------|
B|------1-------1-|------1-------1-|------1-------1-|------1-------0-|
G|----2-------2---|----0-------0---|----2-------2---|----2-------1---|
D|--2-------2-----|--2-------2-----|--0-------0-----|--3-------2-----|
A|0-------0-------|----------------|----------------|----------------|
E|----------------|3-------3-------|2-------2-------|1-------0-------|

E|0-0-0-0--0---0--|3-3-3-0--3---3--|2-2-2-0--2---2--|1-1-1-1-0-0-0-0-|
B|1-1-1-0--1---1--|1-1-1-0--1---1--|1-1-1-0--1---1--|1-1-1-1-0-0-0-0-|
G|2-2-2-0--2---2--|0-0-0-0--0---0--|2-2-2-0--2---2--|2-2-2-2-1-1-1-1-|
D|2-2-2----2---2--|2-2-2----2---2--|0-0-0----0---0--|3-3-3-3-2-2-2-2-|
A|0-0-0----0---0--|x-x-x----x---x--|x-x-x----x---x--|3-3-3-3-2-2-2-2-|
E|----------------|3-3-3----3---3--|2-2-2----2---2--|1-1-1-1-0-0-0-0-|

E|0-0-0-0--0---0--|3-3-3-0--3---3--|2-2-2-0--2---2--|1-1-1-1-0-0-0-0-|
B|1-1-1-0--1---1--|1-1-1-0--1---1--|1-1-1-0--1---1--|1-1-1-1-0-0-0-0-|
G|2-2-2-0--2---2--|0-0-0-0--0---0--|2-2-2-0--2---2--|2-2-2-2-1-1-1-1-|
D|2-2-2----2---2--|2-2-2----2---2--|0-0-0----0---0--|3-3-3-3-2-2-2-2-|
A|0-0-0----0---0--|x-x-x----x---x--|x-x-x----x---x--|3-3-3-3-2-2-2-2-|
E|----------------|3-3-3----3---3--|2-2-2----2---2--|1-1-1-1-0-0-0-0-|





E|0-0-0-0--0---0--|3-3-3-0--3---3--|2-2-2-0--2---2--|1-1-1-1-0-0-0-0-|
B|1-1-1-0--1---1--|1-1-1-0--1---1--|1-1-1-0--1---1--|1-1-1-1-0-0-0-0-|
G|2-2-2-0--2---2--|0-0-0-0--0---0--|2-2-2-0--2---2--|2-2-2-2-1-1-1-1-|
D|2-2-2----2---2--|2-2-2----2---2--|0-0-0----0---0--|3-3-3-3-2-2-2-2-|
A|0-0-0----0---0--|x-x-x----x---x--|x-x-x----x---x--|3-3-3-3-2-2-2-2-|
E|----------------|3-3-3----3---3--|2-2-2----2---2--|1-1-1-1-0-0-0-0-|

E|0-0-0-0--0---0--|3-3-3-0--3---3--|2-2-2-0--2---2--|1-1-1-1-0-0-0-0-|
B|1-1-1-0--1---1--|1-1-1-0--1---1--|1-1-1-0--1---1--|1-1-1-1-0-0-0-0-|
G|2-2-2-0--2---2--|0-0-0-0--0---0--|2-2-2-0--2---2--|2-2-2-2-1-1-1-1-|
D|2-2-2----2---2--|2-2-2----2---2--|0-0-0----0---0--|3-3-3-3-2-2-2-2-|
A|0-0-0----0---0--|x-x-x----x---x--|x-x-x----x---x--|3-3-3-3-2-2-2-2-|
E|----------------|3-3-3----3---3--|2-2-2----2---2--|1-1-1-1-0-0-0-0-|

E|1---------------|(1)-------------|0---------------|(0)-------------|
B|1---------------|(1)-------------|0---------------|(0)-------------|
G|2---------------|(2)-------------|1---------------|(1)-------------|
D|3---------------|(3)-------------|2---------------|(2)-------------|
A|3---------------|(3)-------------|2---------------|(2)-------------|
E|1---------------|(1)-------------|0---------------|(0)-------------|

E|1---------------|(1)-------------|0---------------|----------------|
B|1---------------|(1)-------------|0---------------|----------------|
G|2---------------|(2)-------------|4--24--2424242--|4---------------|
D|3---------------|(3)-------------|2---------------|2---------------|
A|3---------------|(3)-------------|2---------------|2---------------|
E|1---------------|(1)-------------|0---------------|0---------------|

E|----------------|----------------|----------------|----------------|
B|10--10--10--10--|10--10--10--10--|10--10--10--10--|10--10--10--10--|
G|9---9---9---9---|8---8---8---8---|7---7---7---7---|7---7---7---7---|
D|----------------|----------------|----------------|----------------|
A|----------------|----------------|----------------|----------------|
E|9---9---9---9---|8---8---8---8---|7---7---7---7---|6---6---6---6---|

E|-------0-------0|--------0-------|(0)-------------|---------------||
B|---0-------0----|---0----0-------|(0)-------------|---------------||
G|--5---5---5---5-|--5-----5-------|(5)-------------|---------------||
D|-7---7---7---7--|-7------7-------|(7)-------------|---------------||
A|0---0---0---0---|0-------0-------|(0)-------------|---------------||
E|----------------|----------------|----------------|---------------||
Comments