Led Zeppelin - Achilles Last Stand Chords & Tabs

 

Led Zeppelin Chords & Tabs

Version: 1 Type: Bass Tab 0 ratings
1 star 2 stars 3 stars 4 stars 5 stars
comments

Achilles Last Stand Bass Tab

Achilles Last Stand - Led Zeppelin

When bass comes in at approx. 00:19
G|----------------|----------------|----------------|----------------|
D|----------------|----------------|----------------|----------------|
A|----------------|----------------|----------------|----------------|
E|----------------|----------------|----------------|----------------|

G|----------------|----------------|----------------|----------------||
D|----------------|----------------|----------------|----------------||
A|----------------|----------------|----------------|----------------||
E|----------------|----------------|----------------|----------------||

G|----------------|----------------|----------------|----------------|
D|----------------|----------------|----------------|----------------|
A|----7---7---7---|7-777-777-777-77|----7---7---7---|7-777-777-777-77|
E|0-00--00--00--0-|----------------|0-00--00--00--0-|----------------|

G|----------------|----------------|----------------|----------------||
D|----------------|----------------|----------------|----------------||
A|----7---7---7---|7-777-7755-5-567|----7---7---7---|7-777-777-777-77||
E|0-00--00--00--0-|----------------|0-00--00--00--0-|----------------||

G| ----------------|----------------|----------------|----------------|
D|o----------------|----------------|----------------|----------------|
A|o----7---7---7---|7-777-7755-5-567|----7---7---7---|7-777-777-777-77|
E| 0-00--00--00--0-|----------------|0-00--00--00--0-|----------------|

G|----------------|----------------|----------------|----------------|
D|----------------|----------------|----------------|----------------|
A|----7---7---7---|7-777-7755-5-567|----7---7---7---|7-777-777-777-77|
E|0-00--00--00--0-|----------------|0-00--00--00--0-|----------------|

G|----------------|----------------|----------------|----------------|
D|----------------|----------------|----------------|----------------|
A|------5-----2---|----------------|------7-7-777-77|7-777-777-777-77|
E|0---------------|0-000-000-000-00|0---------------|----------------|
  It was an April morning....
  To the sun,the south, the north....

G|----------------|----------------|----------------|----------------|
D|----------------|----------------|----------------|----------------|
A|------5-----2---|----------------|------7-7-777-77|7-777-777-777-77|
E|0---------------|0-000-000-000-00|0---------------|----------------|

G|----------------|----------------|----------------|----------------|
D|----------------|----------------|----------------|----------------|
A|------5-----2---|----------------|------7-7-777-77|7-777-777-777-77|
E|0---------------|0-000-000-000-00|0---------------|----------------|

G|----------------|----------------|----------------|----------------|
D|----------------|----------------|----------------|----------------|
A|------5-----2---|----------------|------7-7-777-77|7-777-777-777-77|
E|0---------------|0-000-000-000-00|0---------------|----------------|

G|----------------|----------------|----------------|----------------|
D|----------------|----------------|----------------|----------------|
A|----7---7---7---|7-777-7755-5-567|----7---7---7---|7-777-777-777-77|
E|0-00--00--00--0-|----------------|0-00--00--00--0-|----------------|

G|----------------|----------------|----------------|----------------|
D|----------------|----------------|----------------|----------------|
A|----7---7---7---|7-777-7755-5-567|----7---7---7---|----------------|
E|0-00--00--00--0-|----------------|0-00--00--00--0-|0-000-000-000-00|

G|----------------|----------------|----------------|----------------|
D|----------------|----------------|----------------|----------------|
A|------5-----2---|----------------|------7-7-777-77|7-777-777-777-77|
E|0---------------|0-000-000-000-00|0---------------|----------------|

G|----------------|----------------|----------------|----------------|
D|----------------|----------------|----------------|----------------|
A|------5-----2---|----------------|------7-7-777-77|7-777-777-777-77|
E|0---------------|0-000-000-000-00|0---------------|----------------|

G|----------------|----------------|----------------|----------------|
D|----------------|----------------|----------------|----------------|
A|------5-----2---|----------------|------7-7-777-77|7-777-777-777-77|
E|0---------------|0-000-000-000-00|0---------------|----------------|

G|----------------|----------------|----------------|----------------||
D|----------------|----------------|----------------|----------------||
A|------5-----2---|----------------|------7-7-777-77|7-777-777-777-77||
E|0---------------|0-000-000-000-00|0---------------|----------------||

G|----------------|----------------|----------------|----------------||
D|----------------|----------------|----------------|----------------||
A|7-5-6-7---5-7-5-|7-5-7-8---------|7-5-6-7---5-7-5-|7-5-7-8---------||
E|----------------|----------------|----------------|----------------||
  ___________________________________________________________________
 |1.
G|----------------|----------------|----------------|----------------|
D|----------------|----------------|----------------|----------------|
A|----------------|--0-----2-------|3---------------|(0)-------------|
E|0-----2-----3---|----------------|----------------|----------------|
  ____________________________________________________________________
                                                                      |
G|----------------|----------------|----------------|---------------- |
D|----------------|----------------|----------------|----------------o|
A|----------------|--0-----2-------|3---------------|(0)-------------o|
E|0-----2-----3---|----------------|----------------|---------------- |

G|----------------|----------------|----------------|----------------|
D|----------------|----------------|----------------|----------------|
A|7-5-6-7---5-7-5-|7-5-7-8---------|7-5-6-7---5-7-5-|7-5-7-8---------|
E|----------------|----------------|----------------|----------------|

  Guitar Solo
G|----------------|----------------|----------------|----------------|
D|----------------|----------------|----------------|----------------|
A|----------------|--0-----2---2---|3---------------|(3)-------------|
E|0-----2-----3---|----------------|----------------|----------------|

G|----------------|----------------|----------------|----------------|
D|----------------|----------------|----------------|----------------|
A|----------------|--0-----2---2---|3---------------|(3)-------------|
E|0-----2-----3---|----------------|----------------|----------------|

G|----------------|----------------|----------------|--------0---2---|
D|----------------|----------------|------0-----2---|--4-------------|
A|----------------|--0-----2---2---|3---------------|----------------|
E|0-----2-----3---|----------------|----------------|----------------|

G|----------------|----------------|----------------|--------0---2---||
D|----------------|----------------|------0-----2---|--4-------------||
A|----------------|--0-----2---2---|3---------------|----------------||
E|0-----2-----3---|----------------|----------------|----------------||

  5/4 time
G|--------------------|--------------------|--------------------|--------------------||
D|2222-2222-2222-2222-|--------------------|2222-2222-2222-2222-|--------------------||
A|--------------------|3333-3333-3333-3333-|--------------------|3333-3333-3333-3333-||
E|--------------------|--------------------|--------------------|--------------------||
  \3/  \3/  \3/  \3/   \3/  \3/  \3/  \3/   \3/  \3/  \3/  \3/   \3/  \3/  \3/  \3/

  4/4 time
G|----------------|----------------|----------------|--------0---2-4-|
D|----------------|----------------|------0-----2---|--4-------------|
A|----------------|---0-----2---2-0|3---------------|----------------|
E|0-----2-----3---|----------------|----------------|----------------|

G|----------------|----------------|----------------|--------0---0-2-|
D|----------------|----------------|------0-----2---|2-4-2-4---4-----|
A|----------------|--0-----2---2-0-|3---------------|----------------|
E|0-----2-----3---|----------------|----------------|----------------|

G|----------------|----------------|----------------|--------0-2-3-4-|
D|----------------|----------------|------0---0-2---|2-4---4---------|
A|----------------|--0-----2---2---|3---3-----------|----------------|
E|0-----2-----3---|----------------|----------------|----------------|

G|----------------|----------------|----------------|--------0---2-0-||
D|----------------|----------------|------0-----2---|--4-------------||
A|----------------|--0-----2---2-0-|3---------------|----------------||
E|0-----2-----3---|----------------|----------------|----------------||

  5/4 time
G|------------------------|------------------------|
D|2222-2222-2222-2222-----|----------------------0-|
A|--------------------7-5-|3333-3333-3333-3333-3---|
E|------------------------|------------------------|
  \3/  \3/  \3/  \3/       \3/  \3/  \3/  \3/

G|------------------------|------------------------|
D|2222-2222-2222-2222-----|----------------------0-|
A|--------------------7-5-|3333-3333-3333-3333-3---|
E|------------------------|------------------------|
  \3/  \3/  \3/  \3/       \3/  \3/  \3/  \3/

  4/4 time
G|----------------|----------------|----------------|--------0-------|
D|----------------|----------------|------0-----2---|--4---------2---|
A|----------------|--0-----2-------|3---------------|----------------|
E|0-----2-----3---|------------3---|----------------|----------------|

G|----------------|----------------|----------------|--------0-------||
D|----------------|----------------|------0-----2---|--4-------------||
A|----------------|--0-----2-------|3---------------|----------------||
E|0-----2-----3---|----------------|----------------|----------------||
[ Tab from: http://www.guitartabs.cc/tabs/l/led_zeppelin/achilles_last_stand_btab.html ]
G|----------------|----------------|----------------|----------------|
D|----2---0-------|----------------|----------------|----------------|
A|------------2---|----------------|------7-7-777-77|7-777-777-777-77|
E|0---------------|0-000-000-000-00|0---------------|----------------|
  Days went by when you and I....

G|----------------|----------------|----------------|----------------|
D|----2---0-------|----------------|----------------|----------------|
A|------------2---|----------------|------7-7-777-77|7-777-777-777-77|
E|0---------------|0-000-000-000-00|0---------------|----------------|

G|----------------|----------------|----------------|----------------|
D|----2---0-------|----------------|----------------|----------------|
A|------------2---|----------------|------7-7-777-77|7-777-777-777-77|
E|0---------------|0-000-000-000-00|0---------------|----------------|

G|----------------|----------------|----------------|----------------|
D|----2---0-------|----------------|----------------|----------------|
A|------------2---|----------------|------7-7-777-77|7-777-777-777-77|
E|0---------------|0-000-000-000-00|0---------------|----------------|

G|----------------|----------------|----------------|----------------|
D|----------------|----------------|----------------|----------------|
A|----7---7---7---|7-777-7755-5-567|----7---7---7---|7-777-777-777-77|
E|0-00--00--00--0-|----------------|0-00--00--00--0-|----------------|

G|----------------|----------------|----------------|----------------|
D|----------------|----------------|----------------|----------------|
A|----7---7---7---|7-777-7755-5-567|----7---7---7---|----------------|
E|0-00--00--00--0-|----------------|0-00--00--00--0-|0-000-000-000-00|

G|----------------|----------------|----------------|----------------|
D|----------------|----------------|----------------|----------------|
A|------5-----2---|----------------|------7-7-777-77|7-777-777-777-77|
E|0---------------|0-000-000-000-00|0---------------|----------------|
  Wandering and wondering....

G|----------------|----------------|----------------|----------------|
D|----------------|----------------|----------------|----------------|
A|------5-----2---|----------------|------7-7-777-77|7-777-777-777-77|
E|0---------------|0-000-000-000-00|0---------------|----------------|

G|----------------|----------------|----------------|----------------|
D|----------------|----------------|----------------|----------------|
A|------5-----2---|----------------|------7-7-777-77|7-777-777-777-77|
E|0---------------|0-000-000-000-00|0---------------|----------------|

G|----------------|----------------|----------------|----------------|
D|----------------|----------------|----------------|----------------|
A|------5-----2---|----------------|------7-7-777-77|7-777-777-777-77|
E|0---------------|0-000-000-000-00|0---------------|----------------|

G|----------------|----------------|----------------|--------0-2-3-4-|
D|----------------|----------------|------0-----2---|--4-------------|
A|----------------|--0-----2---2---|3---------------|----------------|
E|0-----2-----3---|----------------|----------------|----------------|

G|----------------|----------------|----------------|--------0-2-3-4-|
D|----------------|----------------|------0-----2---|--4-------------|
A|----------------|--0-----2---2---|3---------------|----------------|
E|0-----2-----3---|----------------|----------------|----------------|

G|----------------|----------------|----------------|--------0---2-4-|
D|----------------|----------------|------0-----2---|--4-------------|
A|----------------|--0-----2---2---|3---------------|----------------|
E|0-----2-----3---|----------------|----------------|----------------|

G|----------------|----------------|----------------|--------0---2-4-||
D|----------------|----------------|------0-----2---|--4-------------||
A|----------------|--0-----2---2---|3---------------|----------------||
E|0-----2-----3---|----------------|----------------|----------------||

  5/4 time
G|------------------------|------------------------|
D|2222-2222-2222-2222-----|----------------------0-|
A|--------------------7-5-|3333-3333-3333-3333-3---|
E|------------------------|------------------------|
  \3/  \3/  \3/  \3/       \3/  \3/  \3/  \3/

G|------------------------|------------------------|
D|2222-2222-2222-2222-----|----------------------0-|
A|--------------------7-5-|3333-3333-3333-3333-3---|
E|------------------------|------------------------|
  \3/  \3/  \3/  \3/       \3/  \3/  \3/  \3/

  4/4 time
G|----------------|----------------|----------------|--------0-2-3-4-|
D|----------------|----------------|------0-----2---|--4-------------|
A|----------------|--0-----2-------|3---------------|----------------|
E|0-----2-----3---|------------3---|----------------|----------------|

G|----------------|----------------|----------------|--------0---4---|
D|----------------|----------------|------0-----2---|--4-------------|
A|----------------|--0-----2-------|3---------------|----------------|
E|0-----2-----3---|------------3---|----------------|----------------|

G|----------------|----------------|----------------|----------------|
D|----------------|----------------|----------------|----------------|
A|----7---7---7---|7-777-7755-5-567|----7---7---7---|7-777-777-777-77|
E|0-00--00--00--0-|----------------|0-00--00--00--0-|----------------|

G|----------------|----------------|----------------|----------------||
D|----------------|----------------|----------------|----------------||
A|----7---7---7---|7-777-7755-5-567|----7---7---7---|7-777-777-777-77||
E|0-00--00--00--0-|----------------|0-00--00--00--0-|----------------||

G| ----------------|----------------|----------------|---------------- |
D|o----------------|----------------|----------------|----------------o|
A|o--------0---2---|----------------|--------0---2---|----------------o| Play 6
E| 00000--0--------|00000-0---0-0---|00000--0--------|00000-0---0-0--- | times

G|----------------|----------------|------------2---|--4-----0-2-3-4-|
D|----------------|----------------|------0---------|----------------|
A|----------------|--0-----2---2---|3---------------|----------------|
E|0-----2-----3---|----------------|----------------|----------------|

G|----------------|----------------|------------2---|--4-----0-2-3-4-|
D|----------------|----------------|------0---------|----------------|
A|----------------|--0-----2---2---|3---------------|----------------|
E|0-----2-----3---|----------------|----------------|----------------|

G|----------------|----------------|----------------|--------0-2-3-4-|
D|----------------|----------------|------0---0-2---|2-4---4---------|
A|----------------|--0-----2---2---|3---3-----------|----------------|
E|0-----2-----3---|----------------|----------------|----------------|

G|----------------|----------------|----------------|--------0-2-3-4-||
D|----------------|----------------|------0---0-2---|2-4---4---------||
A|----------------|--0-----2---2---|3---3-----------|----------------||
E|0-----2-----3---|----------------|----------------|----------------||

  5/4 time
G|------------------------|------------------------|
D|2222-2222-2222-2222-----|----------------------0-|
A|--------------------7-5-|3333-3333-3333-3333-3---|
E|------------------------|------------------------|
  \3/  \3/  \3/  \3/       \3/  \3/  \3/  \3/

G|------------------------|------------------------|
D|2222-2222-2222-2222-----|----------------------0-|
A|--------------------7-5-|3333-3333-3333-3333-3---|
E|------------------------|------------------------|
  \3/  \3/  \3/  \3/       \3/  \3/  \3/  \3/

G|------------------------|------------------------|
D|2222-2222-2222-2222-----|----------------------0-|
A|--------------------7-5-|3333-3333-3333-3333-3---|
E|------------------------|------------------------|
  \3/  \3/  \3/  \3/       \3/  \3/  \3/  \3/

G|------------------------|------------------------||
D|2222-2222-2222-2222-----|----------------------0-||
A|--------------------7-5-|3333-3333-3333-3333-3---||
E|------------------------|------------------------||
  \3/  \3/  \3/  \3/       \3/  \3/  \3/  \3/

  4/4 time
G|----------------|----------------|----------------|----------------|
D|----------------|----------------|----------------|----------------|
A|----7---7---7---|7-777-7755-5-567|----7---7---7---|7-777-777-777-77|
E|0-00--00--00--0-|----------------|0-00--00--00--0-|----------------|

G|----------------|----------------|----------------|----------------||
D|----------------|----------------|----------------|----------------||
A|----7---7---7---|7-777-7755-5-567|----7---7---7---|7-777-777-777-77||
E|0-00--00--00--0-|----------------|0-00--00--00--0-|----------------||

G| ----------------|----------------|----------------|---------------- |
D|o----------------|----------------|----------------|----------------o|
A|o--------0---2---|----------------|--------0---2---|----------------o| Play 4
E| 00000--0--------|00000-0---0-0---|00000--0--------|00000-0---0-0--- | Times

G|----------------|----------------|----------------|----------------|
D|----------------|----------------|----------------|----------------|
A|----7---7---7---|7-777-7755-5-567|----7---7---7---|7-777-777-777-77|
E|0-00--00--00--0-|----------------|0-00--00--00--0-|----------------|

G|----------------|----------------|----------------|----------------||
D|----------------|----------------|----------------|----------------||
A|----7---7---7---|7-777-7755-5-567|----7---7---7---|7-777-777-777-77||
E|0-00--00--00--0-|----------------|0-00--00--00--0-|----------------||

G|----------------|----------------|----------------|----------------|
D|----------------|----------------|----------------|----------------|
A|2---------------|(2)-------------|----------------|----------------| Repeat
E|----------------|--------------0-|(0)-------------|----------------| to fade


Comments