Leaf Hound - Freelance Fiend Chords & Tabs

 

Freelance Fiend Chords & Tabs

Leaf Hound Chords & Tabs

Version: 1 Type: Bass Tab

Freelance Fiend Bass Tab

LEAFHOUND - FREELANCE FIEND
GROWERS OF MUSHROOM - 1970

VERSE/MAIN RIFF

G---------------------|
D--------5------------|
A-5-7--7---7--7-5-----|
E------------------7--|
REPEAT TILL...

G---------------------|---------------------|
D---------------------|---------------------|
A-7-7--7-7--7-7--5----|-7-7--7-7--7-7--5----|
E-------------------7-|-------------------7-|

VERSE

G---------------------|
D--------5------------|
A-5-7--7---7--7-5-----|
E------------------7--|
REPEAT TILL...
[ Tab from: http://www.guitartabs.cc/tabs/l/leaf_hound/freelance_fiend_btab.html ]
G---------------------|------|---------------------|------|
D---------------------|------|---------------------|------|
A-7-7--7-7--7-7--5----|------|-7-7--7-7--7-7--5----|------|
E-------------------7-|------|-------------------7-|------|

GUITAR SOLO

G---------------------|
D--------5------------|
A-5-7--7---7--7-5-----|
E------------------7--|
REPEAT TILL...

G-------------------------------5-7-|
D-----------------------5-5-5-7-----|
A-7-7-7-7-7-7-7-7-7-7-7-------------|
E-----------------------------------|
PLAY ONCE

G-------------------------------7-9-|
D-----------------------7-7-7-9-----|
A-7-7-7-7-7-7-7-7-7-7-7-------------|
E-----------------------------------|

PRETTY MUCH PLAY THE VERSE RIFF AND CHORUS AGAIN TILL THE SONGS FINISHED.

www.leafhound.net