Le Tigre - Tko Chords & Tabs

 

Tko Chords & Tabs

Le Tigre Chords & Tabs

Version: 1 Type: Bass Tab

Tko Bass Tab

   
-------------------------------------------------------------------------------
			     TKO - Le Tigre
-------------------------------------------------------------------------------

Tabbed By: artificial_life

Tuning: E, A, D, G


  INTRO:
G|----------------------|
D|------------00-2------|
A|---22----22-----------|
E|----------------------|



  VERSE:
G|----------------------|
D|------------00-2------|
A|---22----22-----------|
E|----------------------|


[ Tab from: http://www.guitartabs.cc/tabs/l/le_tigre/tko_btab.html ]
  PRE-CHORUS (PART 1):
G|----------------------|
D|--22-0--2-2-0---------|
A|----------------------|
E|----------------------|


  PRE-CHORUS (PART 2)
G|----------------------|
D|----------------------|
A|--0012----------------|
E|----------------------|



  CHORUS:
G|----------------------|
D|----0*2*--------------|
A|--2*----2*------------|
E|----------------------|
   *play each note in chorus 15 times


INTRO x4
VERSE x8
PRE-CHORUS (PART 1) x7
PRE-CHORUS (PART 2) x1
CHORUS x1
VERSE x7
PRE-CHORUS (PART 1) x4
PRE-CHORUS (PART 2) x1
CHORUS x1
VERSE x10
PRE-CHORUS (PART 1) x4
PRE-CHORUS (PART 2) x1
CHORUS x2